Ads

Shinsou no, Ojousama desu (High School DxD) Guitar Tab

Submitted: Sep 17, 2016 by MechaKrauser

5
Average: 5 (1 vote)
Download | Listen
Game: High School DxD
Composer(s): Ryosuke Nakanishi
Style: Arrangement, Fingerstyle

AutoScroll: Slow | Medium | Fast
Shinsou no, Ojousama desu
from High School DxD
music by Ryosuke Nakanishi
tab by MechaKrauser

Drop D tuning, capo on 5
4/4 time, 72bpm


                    ^                            ^                       
     E  E  E  E     E  E  E  E  E  E  E  E       E  E  Q    E  E  E  E   
E||-----2--0-----|-----------------------0--|------------------2--0-----|
B||-----------3--|--2--------------2--3-----|--3g2-------------------3--|
G||--------------|-----4--4-----------4-----|-------4--4----L-----------|
D||--------------|--4-----4-----5-----------|----4-----4----L-----------|
A||--------------|--2--------2--------------|----2----------------------|
D||--------------|--------------------------|---------------------------|


  ^                                ^          ^             ^                       
              |--3--|  |--3--|                                                      
  E  E  E  E  E  E  E  E  E  E     E  E  Q    Q    E  E     E  E  Q    E  E  E  E   
-----------2--7--8--7--5--3-----|--2------------------0--|-----7-------------------|
--2-----3--------------------4--|--------5---------3-----|--7-------------------0--|
-----4--------------------------|--4----------4----------|--------4----L--7--6-----|
--4--------4--------------------|--------4----2----------|--------4----L-----------|
--2-----2-----6-----------------|-----2------------------|-----4-------------------|
-----------------------4--------|--2---------------------|--4----------------------|


                                                                    ^                 
                                |--3--|  |--3--|  |--3--|                             
  E  E  Q    Q    E  E     Q    E  E  E  E  E  E  E  E  E     E  E  E  E  Q    E  E   
-----2------------------|----------------1-----1--4-----7--|--7-----6-------------0--|
--2---------------0--2--|--3-------0--3-----3--------6-----|-------------------3-----|
--------3----L----------|----------------------------------|--------------3----------|
-----0--4----L----------|-------0-----------------0--------|--------4--6--4----------|
------------------------|--1-------------2-----------------|-----4-----4-------------|
--4---------------------|----------------------------------|--4----------------------|


  ^                ^        ^                 ^        ^                        
  E  E  Q    E  E  E.  S    E  E  E  E  E  E  E.  S    E  E  E  E  E  E  E.  S  
----------------7--5-----|--5--------------5--3---2-|--3-----------------0---0-|
--7--------------------8-|-----------3--L-----------|-----------3--3-----------|
-------------7-----------|--------2-----------------|-----------------0--------|
--------7----------------|-----0--------------0-----|--------2-----------2-----|
-----5-------------5-----|--------------------------|-----2--------0-----------|
--5----------------------|--4-----------------------|--2-----------------------|


  ^                                                                ^           
  E  E  E  E  E  E  E  E     E  E  Q    E  E  E  E     E  E  E  E  Q    E  E   
--2--------------2--3--2--|--2--0--0-------0--3--2--|--0-----------7----L-----|
--------------1-----------|-------------------------|-----3--2--3----------0--|
-----------2--------------|-------------------0-----|-------------------------|
--------0--------------4--|--------2----------------|-------------------------|
-----0--------------4-----|--1----------4-----------|--2-----0----------------|
--0-----------------------|-------------------------|--------------6----L-----|


                   ^                                                        
  E  E  E  E  Q    E  E     Q    Q    Q    E  E     E  E  E  E  Q    E  E   
-----3--0----------------|-----------------2--3--|--5--------3-------------|
--1--------0-------3--2--|--2--------------------|--------------7-------4--|
--------------3----------|------------4----------|-------------------------|
-------------------------|-------4---------------|--------1----------------|
--------2----------1-----|--2---------2----------|-----2-------------6-----|
--2-----------4----------|-----------------4-----|--1-----------4----------|


                                                   ^                                  
  E  E  E  E  E  E  E  E     E  E  E  E   S.S.  S  S.S. S    E  E  E   E  Q    E  E   
-----------------7--5--7--|--8--------7-----7-------------|--------------------7--9--|
--5-----------0-----------|--------------10----10-10-8--7-|--8-----------------------|
-----------2--------------|--------8----------------------|---------------9----------|
--------2-----------------|-------------------------------|--------7h--9-------------|
-----2--------------------|--9--9------------------9------|--7--7--------------------|
--2-----------------------|---------------9---------------|--------------------------|


   E  E  E  E  E  E  E  E     E  E  E.  T  T E  E  E  E     E  E  E  E  Q    E  E   
--10--------9--7--------4--|--5---------5s-2-2-----------|--4--0-----5--2-------0--|
------------------0--------|-----------------------------|--0-----2-----4----------|
---------------------7--L--|-----------------------------|--------4-----4----2-----|
---------6-----6-----------|--------4--------------1-----|-------------------------|
---8--8--------------------|-----4--------------2--------|--------0-----2----------|
---------------------------|--4--------------1--------1--|--2----------------------|


                            ^                            ^                         
  E  E  Q    E  E  E  E     E  E  E  E  E  E  E  E       E  E  Q    E    E  E  E   
--0-------------2--0-----|-----------------------0--|------------------0g2--0-----|
--0-------------------3--|--2--------------2--3-----|--3g2---------------------3--|
--1----------------------|-----4--4-----------4-----|-------4--4----L-------------|
--------2----L-----------|--4-----4-----5-----------|----4-----4----L-------------|
-----2-------------------|--2--------2--------------|----2------------------------|
--2----------------------|--------------------------|-----------------------------|


    ^                                ^          ^             ^                       
                |--3--|  |--3--|                                                      
    E  E  E  E  E  E  E  E  E  E     E  E  Q    Q    E  E     E  E  Q    E  E  E  E   
-------------2--7--8--7--5--3-----|--2------------------0--|-----7-------------------|
--3g2-----3--------------------4--|--------5---------3-----|--7-------------------0--|
-------4--------------------------|--4----------4----------|--------4----L--7--6-----|
----4--------4--------------------|--------4----2----------|--------4----L-----------|
----2-----2-----6-----------------|-----2------------------|-----4-------------------|
-------------------------4--------|--2---------------------|--4----------------------|


                                                                    ^               
                                |--3--|  |--3--|  |--3--|                           
  E  E  Q    Q    E  E     Q    E  E  E  E  E  E  E  E  E     E  E  E  E  H         
-----2------------------|----------------1-----1--4-----7--|--7-----6--------------|
--2---------------0--2--|--3-------0--3-----3--------6-----|-----------------------|
--------3----L----------|----------------------------------|--------------3--------|
-----0--4----L----------|-------0-----------------0--------|--------4--6--4--------|
------------------------|--1-------------2-----------------|-----4-----4-----------|
--4---------------------|----------------------------------|--4--------------------|


  ^       ^       ^       ^                  
  Q    E  E  Q    Q       W                  
--7----L---------------|-------------------||
--5----L----------4----|--L----------------||
----------6--L----4----|--L----------------||
----------4--L---------|-------------------||
-----------------------|-------------------||
--4--------------------|-------------------||




Duration Legend
---------------
W - whole
H - half
Q - quarter
E - 8th
S - 16th
T - 32nd
X - 64th
. - note dotted
|-n-|  - n-tuplets


Tablature Legend
----------------
L - tied note
x - dead note
g - grace note
(n) - ghost note
> - accentuded note
NH - natural harmonic
AH - artificial harmonic
TH - tapped harmonic
SH - semi harmonic
PH - pitch harmonic
h - hammer on
p - pull off
b - bend
br - bendRelease
pb - preBend
pbr - preBendRelease
brb - bendReleaseBend
\n/ - tremolo bar dip
\n - tremolo bar dive
-/n - tremolo bar Release up
/n\ - tremolo bar inverted dip
/n - tremolo bar return
-\n - tremolo bar Release down
S - shift slide
s - legato slide
/ -  slide into from below or out of upwards
\ -  slide into from above or out of downwards
~ - vibrato
W - wide vibrato
tr - trill
TP - tremolo picking
T - tapping
S - slap
P - pop
< - fade in
^ - brush up
v - brush down
Login or Register to remove this ad.