Ads

Ichinichi, Hajimarimasu (High School DxD) Guitar Tab

Submitted: Oct 20, 2016 by MechaKrauser

5
Average: 5 (1 vote)
Download | Listen
Game: High School DxD
Composer(s): Ryosuke Nakanishi
Style: Arrangement, Fingerstyle

AutoScroll: Slow | Medium | Fast
Ichinichi, Hajimarimasu
from High School DxD
music by Ryosuke Nakanishi
tab by MechaKrauser

Standard tuning, capo on 3
6/8 time, 70bpm

*Staccato'd notes are marked with "."


        .  .     .  .        .  .     .  .        .  .     .  .        .  .     .  .
     E  E  E  E  E  E     E  E  E  E  E  E     E  E  E  E  E  E     E  E  E  E  E  E   
E||-----0--0-----------|-----2--2--------0--|-----0--0-----------|-----2--2--------0--|
B||-----2--2-----2--2--|-----3--3-----0--0--|-----2--2-----2--2--|-----3--3-----0--0--|
G||--2-----------2--2--|--4-----------1-----|--2-----------2--2--|--4-----------1-----|
D||-----------4--------|-----------2--------|-----------4--------|-----------2--------|
A||--------------------|--------------------|--0--------------4--|--2-----------------|
E||--------------------|--------------------|--------0--2--------|--------2--0--------|


               |--3--|   .  .                |--3--|   .  .                |--3--|   .  .   
    E  S S S S T  T  T S E  E     E  S S S S T  T  T S E  E     E  S S S S T  T  T S E  E   
|----------0-2-0h-2p-0-L-------|-------0-2-5-4h-5p-4-L-2--0--|---------0-2-0h-2p-0-L-------|
|------2-3---------------3--2--|-----3-----------------------|-----2-3---------------3--2--|
|*-----------------------------|-----------------------------|-----------------------------|
|*-----2---2-------------------|-----0---0-------------------|-----2---2-------------------|
|---0--------------------4--4--|--2-----------------------2--|--0--------------------4--4--|
|--------------2---------------|-------------0---------4-----|-------------2---------------|


 /1st Ending              /2nd Ending
                 .  .                      .
  S S S S S S E  E  E       S S S S S S E  E  S S    E  S S S S E  S S S S  
------------------------||--2-0-------------------|------------------------|
--3-2-0-------2--0--L---||------3-2-0---2--0------|-------------0--------0-|
--------2-1-2----------*||------------2---------2-|--2------1-2------1-2---|
------0---0------------*||------0---0-------------|-------4----------------|
--2-L---------------2---||--2-L---------------2---|--5--5-------2--2-------|
--------------0--4------||--------------0--4------|------------------------|


                                                                                        .  .
  E  S S S S S S S S S S    E  S S S S E  E  E     E  E  E  E  S S S S    E  S S S S E  E  E   
---------0-4-5-4-2-------|----------------------|--------------------0-|--2----2-4-5-7--5--4--|
--2----2-----------2---2-|-----------2-0-----0--|--2-------------2-3---|----------------0--0--|
-----------------2---4---|--2------1------------|--2--------0----------|-----2---2------------|
-----2-------4-----------|-------4-----2--2-----|-----2--2-----2-------|--0-------------------|
--4----------------------|--2--2----------------|--0-------------------|-------------7--------|
-------------------------|----------------------|-----------3----------|----------------------|


                  .  .                               |--3--|  |--3--|  |--3--|  |-3|              
  S  S S S S S E  E  E     E  S S S S S S S S S S    T  T  T  T  T  T  T  T  T  T  S S S Q    E   
--9-10-9-7-5-4----------|-------------------------|----------------------------------------------|
---------------7--------|-------3-2-----------2-0-|--0h-2p-0h-2p-0h-2p-0h-2p-0h-2p-0-------------|
------------------6--6--|--2--------4-2-1---1-----|----------------------------------2-1-2-------|
-------6---6---4--7--7--|-----4---4-------4-------|----------------------------------2---2-------|
------------------------|--2--------------2---2---|--0-----------------------------------0-------|
--9--L------------------|-------------4-----------|-------------------------------------------0--|

        
               ^  .  .                |--3--|   .  .                ^  .  .       
    E  S S S S E  E  E     E  S S S S T  T  T S E  E     E  S S S S E  E  E   
|----------0-2-0--------|-------0-2-5-4h-5p-4-L-2--0--|---------0-2-0--------|
|------2-3--------3--2--|-----3-----------------------|-----2-3--------3--2--|
|*----------------------|-----------------------------|----------------------|
|*-----2---2------------|-----0---0-------------------|-----2---2------------|
|---0-------------4--4--|--2-----------------------2--|--0-------------4--4--|
|--------------2--------|-------------0---------4-----|-------------2--------|


 /1st Ending              /2nd Ending
                 .  .                      .            .  .     .  .        .  .
  S S S S S S E  E  E       S S S S S S E  E  S S    E  E  E  E  E  E     E  E  E  S S S S S S  
------------------------||--2-0-------------------|--------------------|-----------------------|
--3-2-0-------2--0--L---||------3-2-0---2--0------|--------------------|---------------0-------|
--------2-1-2----------*||------------2---------2-|--2-----------------|-----------1-2---2-1-2-|
------0---0------------*||------0---0-------------|-----2--2-----2--2--|--4--------2-----------|
--2-L---------------2---||--2-L---------------2---|-----4--4-----2--2--|-----4--4----------2---|
--------------0--4------||--------------0--4------|--5--------4--------|--2--5--5--0---4-------|


     .  .     .  .        .  .
  E  E  E  E  E  E     E  E  E  S S S S S S  
--------------------|-----------------------|
--------------------|--3--2--0----------2-0-|
-----------------2--|-----------2-1---1-----|
--4--------2--------|-----4--4--2---4-------|
--5--0--0--4--0--0--|--2----------------2---|
-----2--2-----0-----|-----------0---4-------|


     |-3|  |--3-|  |--3--|  |--3--|  |--3--|  |--3--|  |--3--|  |--3--|  |-3|                       
  S  S  T  T T  T  T  T  T  T  T  T  T  T  T  T  T  T  T  T  T  T  T  T  T  S S S    H.             
----------------------------------------------------------------------------------|---------------||
--0h-2p-0h-L-2p-0h-2p-0h-2p-0h-2p-0h-2p-0h-2p-0h-2p-0h-2p-0h-2p-0h-2p-0h-2p-0-----|---------------||
------------------------------------------------------------------------------2-1-|--2------------||
------------------------------------------------------------------------------2---|--2------------||
--0-------------------------------------------------------------------------------|--0------------||
----------------------------------------------------------------------------------|---------------||




Duration Legend
---------------
W - whole
H - half
Q - quarter
E - 8th
S - 16th
T - 32nd
X - 64th
. - note dotted
|-n-|  - n-tuplets


Tablature Legend
----------------
L - tied note
x - dead note
g - grace note
(n) - ghost note
> - accentuded note
NH - natural harmonic
AH - artificial harmonic
TH - tapped harmonic
SH - semi harmonic
PH - pitch harmonic
h - hammer on
p - pull off
b - bend
br - bendRelease
pb - preBend
pbr - preBendRelease
brb - bendReleaseBend
\n/ - tremolo bar dip
\n - tremolo bar dive
-/n - tremolo bar Release up
/n\ - tremolo bar inverted dip
/n - tremolo bar return
-\n - tremolo bar Release down
S - shift slide
s - legato slide
/ -  slide into from below or out of upwards
\ -  slide into from above or out of downwards
~ - vibrato
W - wide vibrato
tr - trill
TP - tremolo picking
T - tapping
S - slap
P - pop
< - fade in
^ - brush up
v - brush down
Login or Register to remove this ad.