Ads

Eyecatch A and B (High School DxD) Guitar Tab

Submitted: Sep 22, 2016 by MechaKrauser

5
Average: 5 (1 vote)
Download | Listen
Game: High School DxD
Composer(s): Ryosuke Nakanishi
Style: Arrangement, Fingerstyle

AutoScroll: Slow | Medium | Fast
Eyecatch A and B
from High School DxD
music by Ryosuke Nakanishi
tab by MechaKrauser

Drop D tuning, Capo on 5
6/8 time, 124bpm


 [Eyecatch A]

     ^                    |--3--|  |--3--|                                              
     E  E  E  E  E  E     S  S  S  S  S  S Q    Q       Q    Q    Q       H.            
E||--2--3--5--2-----2--|--0h-2p-0h-2p-0h-2-----------|-----------------|---------------|
B||--3-----------3-----|-------------------3----2----|--3--------------|---------------|
G||--2-----------------|--2----------------2---------|-----------------|---------------|
D||--------0-----------|--4----------------0---------|--0--------------|---------------|
A||--------------0-----|------------------------4----|-------0---------|---------------|
D||--0-----------------|-----------------------------|------------4----|--0------------|


 [Eyecatch B]

     ^                    |--3--|  |--3--|                                               
     E  E  E  E  E  E     S  S  S  S  S  S Q    Q       Q    Q    Q       H.             
E||--------------3-----|--2h-3p-2h-3p-2h-3-----------|--0--------------|---------------||
B||--5--------5-----5--|-------------------5----4----|-----------------|---------------||
G||--4-----4-----------|--2----------------2---------|-----------------|---------------||
D||-----2--------2-----|--4----------------2---------|--2--------------|---------------||
A||--------2-----------|------------------------6----|-------2---------|---------------||
D||--2-----------------|-----------------------------|------------6----|--2------------||






Duration Legend
---------------
W - whole
H - half
Q - quarter
E - 8th
S - 16th
T - 32nd
X - 64th
. - note dotted
|-n-|  - n-tuplets


Tablature Legend
----------------
L - tied note
x - dead note
g - grace note
(n) - ghost note
> - accentuded note
NH - natural harmonic
AH - artificial harmonic
TH - tapped harmonic
SH - semi harmonic
PH - pitch harmonic
h - hammer on
p - pull off
b - bend
br - bendRelease
pb - preBend
pbr - preBendRelease
brb - bendReleaseBend
\n/ - tremolo bar dip
\n - tremolo bar dive
-/n - tremolo bar Release up
/n\ - tremolo bar inverted dip
/n - tremolo bar return
-\n - tremolo bar Release down
S - shift slide
s - legato slide
/ -  slide into from below or out of upwards
\ -  slide into from above or out of downwards
~ - vibrato
W - wide vibrato
tr - trill
TP - tremolo picking
T - tapping
S - slap
P - pop
< - fade in
^ - brush up
v - brush down
Login or Register to remove this ad.