Ads

Ashita mo, Ganbarimasu (High School DxD) Guitar Tab

Submitted: Mar 17, 2017 by MechaKrauser (Last updated: May 06, 2017)

5
Average: 5 (2 votes)
Download | Listen
Game: High School DxD
Composer(s): Ryosuke Nakanishi
Style: Arrangement, Fingerstyle

AutoScroll: Slow | Medium | Fast
Ashita mo, Ganbarimasu
from High School DxD
music by Ryosuke Nakanishi
tab by MechaKrauser

Drop D, capo 5
4/4 time, 77bpm

     ^                          ^                       ^              ^         
     E  E  E  E  E  E  E  E     E  E  E  E  H           E  E  E  E  E  E  E  E   
E||--------------------------|-----------------------|-----------0--L--5-----5--|
B||--3--2--3-----------------|--3--2--3--------------|--3--2--3--------3--------|
G||--2--------------2--------|--4--------------------|--2-----------------------|
D||--------0--4--L-----------|--------2--5--L--------|-----0--4-----------0-----|
A||-----0-----------------0--|-----2-----------------|--------------------------|
D||--0-----------------4-----|--2--------------------|--4-----------------------|


           ^                 ^                                                   
  E  E  E  E  E  E  E  E     E  E  E  E  E  E  E  E     E  E  E  E  E  E  E  E   
-----3--2-----------------|--------------------------|-----------------------0--|
-----------3--L-----------|--3--2--3--------------3--|-----2--3-----------3-----|
--------0--2--L--0--------|--2--------------2--------|--------------------------|
-----0-----0--L-----0-----|--------0--4--L-----------|--------2--5--L-----5-----|
--------------------------|-----0--------------------|-----2-----------2--------|
--5--------------------5--|--0-----------------4-----|--2-----------------------|


                                                        ^                        
  E  E  E  E  E  E  E   E     E  E  E  E  E  E  Q       E  E  E  E  E  E  E  E   
--0--2--3--5--L--------10--|-----9--7--5--L----------|--------------------------|
---------------------------|-------------------------|--3--2--3-----------------|
--2------------------------|--------0--------0-------|--2--------------2--------|
-----0--4--------0---------|-----0-----7--L-----0----|--------0--4--L-----------|
---------------------------|-------------------------|-----0-----------------0--|
--4-----------------4------|--5----------------------|--0-----------------4-----|


  ^                 ^       ^              ^                    ^        ^      
  E  E  E  E  E  E  Q       E  E  E  E  E  E  E  E     E  E  E  E  E  E  E  E   
--------------------5----|-----------0--L--5-----5--|-----3--2-----------5-----|
--3--2--3----------------|--3--2--3--------3--------|-----------3--L-----------|
--4-----------------2----|--2-----------------------|--------0--2--L--0--2-----|
--------2--5--L----------|-----0--4-----------0-----|-----0-----0--L-----0-----|
-----2-----------2-------|--------------------------|--------------------------|
--2----------------------|--4-----------------------|--5--------------------5--|


  ^                                                                               
  E  E  E  E  E  E  E  E     E  E  E  E  E  E  E  E     E  E  E  E  E  E  E   E   
--------------------------|-----------------------0--|--0--2--3--5--L--------10--|
--3--2--3--------------3--|-----2--3-----------3-----|---------------------------|
--2--------------2--------|--------------------------|--2------------------------|
--------0--4--L-----------|--------2--5--L-----5-----|-----0--4--------0---------|
-----0--------------------|-----2-----------2--------|---------------------------|
--0-----------------4-----|--2-----------------------|--4-----------------4------|


                                      ^                 ^           ^           
  E  E  E  E  E  E  E  E     E  E  E  E  E  E  E  E     E  E  E  E  Q    E  E   
-----9--7--5--L-----------|-----------------------0--|-------------------5-----|
--------------------------|-----------2--L-----3-----|-------------------3-----|
--------0-----------------|-----4-----4--L-----------|--2-----------2-------2--|
-----0-----7--L-----0-----|--4--4-----2--L--4--------|--2-----2-----2----------|
-----------------------7--|--2-----2-----------------|-----4-----4-------------|
--5--------------5--------|--------------------------|--4----------------------|


  ^                          ^           ^                      ^               
  E  E  E  E  E  E  E  E     E  E  E  E  E  E  Q       E  E  E  E  E  E  E  E   
--3--2--0-----------------|-------------------------|-----------------------0--|
-----------3--L-----------|--3-----------2----------|-----------2--L-----3-----|
--0-----0--4--L--0-----2--|--2--------2--2--2-------|-----4-----4--L-----------|
-----0--------------0-----|--2-----2-----2----------|--4--4-----2--L--4--------|
--------------------------|-----0--------------0----|--2-----2-----------------|
--5--------------------5--|-------------------------|--------------------------|


  ^                          ^                          >                      
  E  E  E  E  E  E  E  E     E  E  E  E  E  E  E  E     H         E  E  E  E   
--0-----------------------|--5-----------------------|-----------10--9--7--5--|
--------3-----2--------3--|--3-----------------------|------------------------|
--2-----------------------|--0-----0--2--L--0--------|------------------------|
--------2--------2--------|-----0--------------0-----|------------------------|
-----4-----4--------4-----|--------------------------|------------------------|
--4-----------------------|--5--------------------5--|--5---------------------|


  ^                        ^                       ^        ^               
  Q.     E  E  E  E  E     H        E  E  E  E     E  E  E  E  E  E  E  E   
--5---------5--3--2--3--|--3--------3--5--7--3--|--0--------0--5--------0--|
--3------3--------------|--0--------0--------0--|--------------------3-----|
------------------------|--------------6--7-----|--2--------2-----2--------|
--0---------------------|-----------------------|-----2--L-----------------|
------------------------|-----------------------|--0-----------------------|
------------------------|--2--------------------|--------------------------|


  ^         ^           ^                          ^                ^     
  Q.     E  H           E  E  E  E  E  E  E  E     E  E  E  E  Q    Q     
------------5--------|--------------------------|-------------------5----|
--2---------2--------|--3--2--3-----------------|--3--2--3---------------|
--2------2-----------|--2--------------2--------|--4----------------2----|
---------------------|--------0--4--L-----------|--------2--5--L---------|
---------------------|-----0-----------------0--|-----2------------------|
---------------------|--0-----------------4-----|--2---------------------|


  ^              ^                    ^                 ^                        
  E  E  E  E  E  E  E  E     E  E  E  E  E  E  E  E     E  E  E  E  E  E  E  E   
-----------0--L--5-----5--|-----3--2-----------------|--------------------------|
--3--2--3--------3--------|-----------3--L-----------|--3--2--3--------------3--|
--2-----------------------|--------0--2--L--0--------|--2--------------2--------|
-----0--4-----------0-----|-----0-----0--L-----0-----|--------0--4--L-----------|
--------------------------|--------------------------|-----0--------------------|
--4-----------------------|--5--------------------5--|--0-----------------4-----|


                                                                              ^   
  E  E  E  E  E  E  E  E     E  E  E  E  E  E  E   E     E  E  E  E  E  E  E  E   
-----------------------0--|--0--2--3--5--L--------10--|-----9--7--5--L-----------|
-----2--3-----------3-----|---------------------------|-----------------------3--|
--------------------------|--2------------------------|--------0--------0--------|
--------2--5--L-----5-----|-----0--4--------0---------|-----0-----7--L-----0-----|
-----2-----------2--------|---------------------------|--------------------------|
--2-----------------------|--4-----------------4------|--5--------------------5--|


              *rall-------->38bpm
                             ^                  
  E  E  E  E  E  E  E  E     W                  
--------------------------|-------------------||
-----2--0-----------------|-------------------||
-----------2--L--0--------|--2----------------||
--------------------4--0--|--0----------------||
--------------------------|-------------------||
--5-----------------------|--0----------------||




Duration Legend
---------------
W - whole
H - half
Q - quarter
E - 8th
S - 16th
T - 32nd
X - 64th
. - note dotted
|-n-|  - n-tuplets


Tablature Legend
----------------
L - tied note
x - dead note
g - grace note
(n) - ghost note
> - accentuded note
NH - natural harmonic
AH - artificial harmonic
TH - tapped harmonic
SH - semi harmonic
PH - pitch harmonic
h - hammer on
p - pull off
b - bend
br - bendRelease
pb - preBend
pbr - preBendRelease
brb - bendReleaseBend
\n/ - tremolo bar dip
\n - tremolo bar dive
-/n - tremolo bar Release up
/n\ - tremolo bar inverted dip
/n - tremolo bar return
-\n - tremolo bar Release down
S - shift slide
s - legato slide
/ -  slide into from below or out of upwards
\ -  slide into from above or out of downwards
~ - vibrato
W - wide vibrato
tr - trill
TP - tremolo picking
T - tapping
S - slap
P - pop
< - fade in
^ - brush up
v - brush down
Login or Register to remove this ad.