Ads

Give Me Secret (Piano Arrange Ver) (High School DxD BorN) Guitar Tab

Submitted: Feb 29, 2016 by MechaKrauser

5
Average: 5 (1 vote)
Download | Listen
Game: High School DxD BorN
Style: Arrangement, Fingerstyle

AutoScroll: Slow | Medium | Fast
Give Me Secret (Piano Arrange Ver)
from High School DxD BorN
music by Mayu Miyazaki
tab by MechaKrauser

Drop D tuning, capo on 6
2/4 time, 120bpm

*Staccato'd notes are marked with "."

     ^                                            ^            ^                          
     E  E  E  E     E  E  E  E     E  E  E  E     Q    Q       Q    E  E     E  E  E  E   
E||--------------|--------------|--------------|------------|-------------|--------------|
B||--------------|--------------|--------------|------------|-------------|--------------|
G||--2-----------|--------------|--------------|------------|--2----------|--------------|
D||--0-----0--2--|--L--4--4--2--|--2--0--0-----|--0----2----|--2----0--2--|--L--4--4--2--|
A||-----0--------|--------------|-----------2--|------------|--0----------|--------------|
D||--0-----------|--------------|--0-----------|--0---------|-------------|--------------|


                 ^                                         ^                          
  E  E  E  E     Q    Q       E  E  E  E     Q    E  E     E  E  Q       E  E  E  E   
--------------|------------|--------------|-------------|-------------|--------------|
--------------|------------|--------------|-------------|-------------|--------------|
--------------|--2---------|--------------|-------------|-------------|--------------|
--2--0--0-----|-------4----|-----0--2--0--|--0-------0--|--2--0--0----|-----0--2--0--|
--0--------2--|--0---------|--------------|-------------|-------------|--------------|
--------------|------------|--5-----------|-------------|--5----------|--------------|


                                                            ^                           
  E  E  E  E     E  E  Q       E  E  E  E     E  E  Q       E  E  E  E     E  E  E  E   
--------------|-------------|--------------|-------------|--------------|--------------|
--------------|-------------|-----------0--|-------------|-----3--3--0--|--3--0--3--0--|
--------------|-------------|--0--2-----2--|-----2--L----|--------------|--------------|
--0-----2--4--|--5-----4----|--2-----2-----|-----2--L----|--0-----------|--------------|
-----2--------|-----2--5----|--0-----------|--0-----0----|--------------|--------------|
--2-----------|--2----------|--------------|-------------|--0-----------|--------------|


                                                                            ^    ^     
  E  E  E  E     E  E  Q       E  E  E  E     E  E  E  E     E  E  E  E     Q    Q     
--------------|--------2----|--------------|--------------|--------------|--0---------|
--3--0--3--0--|--3----------|-----3--3--0--|--3--0--3--0--|--3--0--3--0--|-------3----|
--------------|--------2----|--------------|--------------|--------------|--0---------|
--0-----------|-----0-------|--------------|--------------|--2-----------|-------4----|
--------------|-------------|--0-----------|--------------|--------------|------------|
--------------|--0----------|--------------|--------------|--------------|------------|


                                                  ^                                      
  H           H           H           H           H           Q    E  E     E  E  E  E   
-----------|-----------|-----------|-----------|-----------|----------3--|--L--2--L-----|
--3--------|-----------|-----------|-----------|--3--------|--L----L-----|-----------3--|
--4--------|-----------|--6--------|-----------|--4--------|--L----L--4--|--L--2--L--0--|
-----------|-----------|--7--------|-----------|--0--------|--L----L-----|--------------|
--2--------|--1--------|--0--------|-----------|-----------|-------------|--------------|
-----------|-----------|-----------|--6--------|--5--------|--L----L--5--|--L-----------|


                                      ^                                             
  E  E  Q       Q    E  E     Q    E  E     E  E  E  E     Q    Q       Q    E  E   
-----0--L----|-------------|-------------|--------------|------------|-------------|
--L----------|-------0-----|--0-------0--|-----2--L--2--|--L---------|-------3-----|
--L--2--L----|-------0-----|--0-------2--|-----2--L-----|------------|-------4-----|
-------------|----------0--|-------------|--2--------2--|--L---------|----------4--|
--------0----|-------------|----------0--|-----------0--|--L----0----|--2----------|
-------------|--5----------|-------5-----|--------------|------------|-------------|


  Q    E  E     E  E  E  E     E  E  Q       Q    Q       Q    Q       Q    Q     
-------0--3--|--L--2--L--0--|--L----------|------------|------------|--0---------|
--3----------|-----3--L-----|-----3-------|--3---------|------------|--2---------|
--4-------4--|--L--------4--|--L--2-------|--4---------|------------|------------|
-------------|--------------|-------------|------------|------------|------------|
----------2--|--L-----------|--------2----|------------|------------|--0----0----|
-------------|--------------|-------------|--5----5----|--5----5----|------------|


               ^                                                          ^          
  Q    Q       E  E  E  E     E  E  E  E     Q    E  E     E  E  E  E     Q    Q     
------------|--2-----------|-----2--------|-------------|-----0-----0--|--2----2----|
------------|--4--------4--|--L-----------|-------------|--3-----3-----|------------|
------------|--------4-----|-----------4--|----------2--|--------------|--2---------|
------------|-----4--------|--------4-----|-------------|--------------|--0---------|
--0----0----|--2-----------|--------------|--2----L-----|--------------|------------|
------------|--------------|--------------|-------------|--------------|------------|


          ^                       ^           ^                                       
  Q    E  E     E  E  E  E     E  E  E  E     Q    Q       Q    E  E     E  E  E  E   
----------2--|--------------|-----2--L--2--|--0----0----|-------------|--------------|
--3-------3--|-----3--L-----|-----3--L-----|------------|--2----------|-----2--L--3--|
-------2-----|-----------2--|--------------|------------|-------2--2--|--------------|
-------------|--0-----------|--0-----------|------------|-------------|--------------|
-------------|--------------|--------------|--1---------|-------------|--------------|
-------------|--------------|--------------|--4---------|-------------|--4-----------|


                ^                                                                      
  E  E  Q       Q    Q       Q    E  E     E  E  E  E     E  E  E  E     E  E   E  E   
-----0--L----|-------5----|--2----0-----|-----5--L--2--|--L--0-----3--|-----2---L-----|
-------------|--3---------|----------3--|--------------|-----------0--|------------3--|
-----2--L----|------------|--4----------|-----2--L--2--|--L--2--------|-----2---L-----|
--2----------|--4---------|-------------|--------------|--------2-----|------------4--|
-------------|--2---------|-------------|--0-----------|--------------|---------------|
-------------|------------|-------------|--------------|--------------|--5------------|


          ^        .  .                       ^                       ^                   
  Q    E  E     E  E  E  E     E  E  E  E     E  E  E  E     E  E  E  E      E  E  E  E   
----------2--|--L--0--0-----|-----0-----0--|--2-----2-----|-----------2--|---L-----------|
-------------|--------------|--3-----3-----|--3-----------|--3--------3--|---L--3--L-----|
----------2--|--L--0--0-----|--------------|-----2-----2--|--------2-----|------------2--|
-------------|--------------|--------------|--0-----------|-----0--------|------0--L-----|
----------0--|--L-----------|--------------|--------------|--------------|---------------|
--5----L-----|--------------|--------------|--------------|--------------|---------------|


     ^           ^                                ^     ^        ^          ^          
  E  E  E  E     E  E  E  E     E  E  E  E     E  E  E  E     E  E  Q       Q    Q     
-----2-----2--|--0-----0-----|--------------|--------------|-----0--L----|-------5----|
-----3--------|--------------|--2--L--------|-----2--L--3--|--L----------|--3---------|
--------2--L--|--------------|--------2--2--|--L-----------|-----2--L----|------------|
--0-----------|--------2-----|--2-----------|-----2--L--4--|--L----------|--4---------|
--------------|-----1-----1--|-----------1--|--L-----------|-------------|--2---------|
--------------|--4-----------|-----4--------|--------------|--------4----|------------|


                    ^     ^                    ^                                          
  E  E  E  E     E  E  E  E     E  E  E  E     E  E  E  E     E  E  E  E     E  E  E  E   
--2-----0-----|-----5-----2--|--L--2--0-----|--0-----------|-----------3--|-----2-----0--|
-----------3--|--------------|-----0-----3--|--------3-----|-----------0--|--------------|
--4-----------|-----2-----2--|--L-----2-----|--0-----0-----|-----------0--|-----2-----0--|
-----4--------|--------2-----|-----------0--|-----0-----4--|--L--0--L-----|-----4-----2--|
--------------|--0-----------|--------------|--------------|--------------|--------------|
--------------|--------------|--------------|--5-----------|--------------|--------------|


              *rall--------------------------->45bpm
                                               ^                      
  E  E  E  E     E  E  E  E     E  E  E  E     H           H          
--------------|--------------|-----------0--|--5--------|--L--------||
-----3-----3--|--------------|--------3-----|--3--------|--L--------||
--------------|--------------|-----2--------|--2--------|--L--------||
-----4-----4--|--------0--2--|--4-----------|-----------|-----------||
-----5-----5--|-----0--------|--------------|-----------|-----------||
--------------|--0-----------|--------------|-----------|-----------||




Duration Legend
---------------
W - whole
H - half
Q - quarter
E - 8th
S - 16th
T - 32nd
X - 64th
. - note dotted
|-n-|  - n-tuplets


Tablature Legend
----------------
L - tied note
x - dead note
g - grace note
(n) - ghost note
> - accentuded note
NH - natural harmonic
AH - artificial harmonic
TH - tapped harmonic
SH - semi harmonic
PH - pitch harmonic
h - hammer on
p - pull off
b - bend
br - bendRelease
pb - preBend
pbr - preBendRelease
brb - bendReleaseBend
\n/ - tremolo bar dip
\n - tremolo bar dive
-/n - tremolo bar Release up
/n\ - tremolo bar inverted dip
/n - tremolo bar return
-\n - tremolo bar Release down
S - shift slide
s - legato slide
/ -  slide into from below or out of upwards
\ -  slide into from above or out of downwards
~ - vibrato
W - wide vibrato
tr - trill
TP - tremolo picking
T - tapping
S - slap
P - pop
< - fade in
^ - brush up
v - brush down
Login or Register to remove this ad.