Ads

BLESS YoUr NAME (Piano Arrange Ver) (High School DxD BorN) Guitar Tab

Submitted: Feb 29, 2016 by MechaKrauser (Last updated: Dec 16, 2016)

5
Average: 5 (1 vote)
Download | Listen
Game: High School DxD BorN
Style: Arrangement, Fingerstyle

AutoScroll: Slow | Medium | Fast
BLESS YoUr NAME (Piano Arrange Ver)
from High School DxD BorN
Music by Tatsuya Kurauchi
tab by MechaKrauser

Standard tuning, capo on 4
4/4 time, 140bpm

                                                        ^     ^          ^                        
     E  E  E  E     E  E  E  E  E  E  E  E     E  E  E  E  E  E  Q       E  E  E  E  E  E  E  E   
E||--------------|--1-----1--0--L-----------|-----------0--L----------|-----------------------1--|
B||--------------|--3-----3-----------------|-----------------3--L----|--1--------------1--3--1--|
G||-----2--L--2--|-----2-----------2--L--0--|--L--2--L--0--L----------|-----------3--L-----------|
D||--------------|--0--------0--L-----------|-----------------3--L----|--3--------3--L--3--0--3--|
A||--------------|--------------------------|-------------------------|--1--3--1-----------------|
E||--------------|--------------------------|-------------------------|--------------------------|


                        ^                                                                     ^   
  H        Q    Q       E  E  E  E  E  E  E  E     H        Q    E  E     Q    E  E  E  E  E  E   
--L------------------|--------------------------|----------------------|-------------------------|
--L------------------|--------------------------|----------------------|-------------------------|
---------------------|-----------------5--L-----|----------------------|--0-------0--L--2--L--3--|
--L--------0----3----|--5-----3--5--L--------5--|--L--------L-------3--|-------3--------0--L-----|
---------------------|-----5--------------------|----------------5-----|--2-------2--L--------4--|
---------------------|--3--------3--L-----------|----------------------|-------------------------|


                          ^                                                   ^       ^            
  H        E  E  E  E     Q    E  E  E  E  E  E     E  E  E  E  E  E  Q       Q    E  E  H         
-----------------------|--1----1--0--L-----------|-----------3--L--1--L----|----------------------|
-----------------------|--3----3-----------------|-----------1--L----------|--1-------3--L--------|
--L--------L--2--L--2--|----------------2--L--0--|--L--2-------------------|--2----3--3--L--------|
-----------------------|--0-------0--L-----------|-----2-------------------|----------------------|
--L--------L-----------|----------------------3--|--L-----3----------------|--0-------1--L--------|
-----------------------|-------------------------|-------------------------|----------------------|


                           ^       ^        ^                             ^                     
  Q    Q    E  E  E  E     Q    E  E  E  E  Q       H        Q    Q       Q    E  E  Q    Q     
------------------------|------------------------|---------------------|-----------------------|
--L----1----1--3--L-----|------------------------|---------------------|----------0--L----2----|
--L------------------3--|--2----0--2--L--3--2----|--L-------------0----|--2----L---------------|
------------------------|-------0--------0--0----|--L--------3---------|----------0--L---------|
--L---------------------|------------------------|---------------------|--2----L----------4----|
------------------------|--3-------3--L-----3----|--L------------------|-----------------------|


  Q    Q    E  E  Q       Q    E  E  E  E  Q       Q    E  E  E  E  Q       Q    E  E  E  E  Q     
---------------0--L----|--0---------------------|--0---------------------|------------------------|
--L----2----3----------|----------3--L----------|----------3--L----------|----------1--L----------|
---------------0--L----|--0----------------2----|--0----------------2----|--0-------0--L-----2----|
-------2----3----------|----------3--L-----3----|----------3--L-----3----|--2----------------2----|
--L--------------------|--1----1--------1-------|--1----1--------1-------|--3----3--------3-------|
-----------------------|------------------------|------------------------|------------------------|


                            ^                                                               ^     
  E  E  E  E  E  E  Q       Q    E  E  Q    Q       Q    E  E  Q    Q       Q    E  E  Q    Q     
-----------0--1--0-------|-----------------------|-----------------------|-----------------------|
--------3----------------|--3--------------------|--1--------------------|-----------------------|
--L--2--------------2----|--3-------5--L---------|--2-------3--L---------|----------0--L----2----|
--L----------------------|----------5--L----3----|-------2----------3----|--2----3----------3----|
-------------------------|-------5----------5----|--0-------0--L----0----|--3-------3--L----3----|
-------------------------|--3--------------------|-----------------------|-----------------------|


  E  E  Q    Q    Q       Q    E  E  Q    E  E     Q    E  E  E  E  Q       Q    E  E  E  E  Q     
-----------------------|--0----0----------------|--0----0----------------|----------------0-------|
-----------------------|----------3--L----------|----------3--L----------|--1-------1--L-----3----|
--------0----2----2----|--0----0----------2-----|--0----0-----------2----|--2----2--0--L--2-------|
-----3-------2---------|----------3--L-------3--|----------3--L----------|-------2-----------0----|
--3----------0---------|--1---------------------|--1-------------1-------|--0---------------------|
-----------------------|------------------------|------------------------|------------------------|


                             ^                                                 
  E  E  E  E  E.  S E  E     Q    E  E   E  E  Q        Q    Q    E  E  E  E   
--------------------------|-------------------------|-------------------------|
--3-----------1-----------|--------------------0----|---L---------------------|
-----2------------3----2--|--0-------2---L----------|-------------0-----2--2--|
--------0-----0--------0--|--------------------0----|---L----0-------0--------|
-----------0--------0-----|--2-------3---L----------|-------------------2-----|
--------------------------|--3----3---------3-------|-------------------3-----|


                                                    ^       ^         ^                             
  E  E  E  E   Q    Q       Q    Q    E  E  Q       Q    E  E   E  E  Q        Q    Q    Q    Q     
-------------------------|-----------------------|--------------------0----|---L-------------------|
-----------0---L----2----|---------------0--2----|--2-------3---L-----2----|---L-------------------|
--2----------------------|--2---------2----------|--2-------4---L----------|-------------2---------|
-----2--------------2----|-------2-------2-------|--------------------2----|---L----2---------2----|
--0-----2--4---L---------|------------0-----0----|--0----0--4---L--0-------|-----------------------|
-------------------------|-----------------------|-------------------------|-----------------------|


  >                                                         ^                          ^        
  W                   Q    E  E  H           E  E  E  E  E  E  E  E     E  E  E  E  E  E  Q     
-------------------|--2----L--0--0--------|-----------------5--L-----|-----------------5-------|
-------------------|----------------------|--3-----2--3--L--3--L--3--|-----2-----3-----3-------|
-------------------|----------------------|--4-----4--------------0--|--------0--4--------0----|
-------------------|----------------------|-----4-----4--L-----4-----|-----0-----------0-------|
--0----------------|----------------------|--2-----------------------|-------------------------|
-------------------|----------------------|--------------------------|--3-----------3----------|


                                                                     ^         
  Q    E  E  E  E  E  E     E  E  E  E  E  E  Q       E  E  E  E  E  E  E  E   
--2----2--2--L--3--L--2--|-----0--0----------------|-----------------5--L-----|
--3-------3--L--------3--|-------------------------|--3-----2--3--L--3--L--3--|
-------2--------2--L-----|--------2----------------|--4-----4--------------0--|
--0-------0--L-----------|-----2-----------4--L----|-----4-----4--L-----------|
-------------------------|--0--------1--L-----1----|--2-----------------------|
-------------------------|-------------------------|--------------------------|


                 ^          ^                                              
  E  E  E  E  E  E  Q       Q    E  E  E  E  E  E     Q    E  E  H         
-----------------0-------|--5----5--5-----7--L--7--|-------5--------------|
-----2-----3--L--3-------|--3-------3-----0--L--0--|----------------------|
--------0--4--L----------|-------2-----2-----------|-------2--------------|
-----0--------------0----|--0-------------0--L-----|----------2-----------|
-------------------------|-------------------------|--0-------------------|
--3----------------------|-------------------------|-------------4--------|


                                                        ^          ^     ^      
  E  E  E  E  E  E  E  E     E  E  E  E  E  E  E  E     Q    E  E  E  E  E  E   
--------2-----0-----------|--------2-----0-----2-----|--5----------3-----3--3--|
--------------------3-----|--0-----------------------|-------------0-----0--0--|
--------0-----------0-----|--------2-----------2-----|-------2-----------------|
-----0-----0-----0-----0--|-----2-----2-----2-----2--|--4----------------1-----|
--------------------------|--0-----------0-----------|--2----2--4-----4--------|
--3-----------3-----------|--------------------------|-------------------------|


     ^                      ^       ^     ^     ^                             
  E  E  E  E  E  E  Q       Q    E  E  E  E  E  E     E  E  E  E  E  E  Q     
-----2--L----------------|--2-------0-----2--L-----|-------------------------|
-------------------------|--0-------0-----------0--|--L-----------------0----|
-----2--L----------------|--0----------0-----------|--------0-----------0----|
--1--4--L--4--L--4--L----|-------0--------0--L-----|-----------0--L----------|
-------------------------|-------------------------|-------------------------|
--------------------2----|--3-------------------3--|--L--3-----------3-------|


                                                *105bpm       *rall--------->45bpm
                                                  ^                                             
  Q    E  E   E  E  E  E     H        H           E  E  E  E  E  E  E  E     W                  
--3----2--3---L--5--L--0--|--L--------0--------|--2-----------2-----------|-------------------||
--0----0--0---L--0--L-----|--------------------|-----------3-----3--------|-------------------||
----------2---L--------3--|--L--------3--------|--4-----4-----------4-----|-------------------||
-------2------------------|--------------------|-----4-----------------4--|-------------------||
--0--------------0--L--1--|--L-----------------|--2-----------------------|--2----------------||
--------------------------|--------------------|--------------------------|-------------------||





Duration Legend
---------------
W - whole
H - half
Q - quarter
E - 8th
S - 16th
T - 32nd
X - 64th
. - note dotted
|-n-|  - n-tuplets


Tablature Legend
----------------
L - tied note
x - dead note
g - grace note
(n) - ghost note
> - accentuded note
NH - natural harmonic
AH - artificial harmonic
TH - tapped harmonic
SH - semi harmonic
PH - pitch harmonic
h - hammer on
p - pull off
b - bend
br - bendRelease
pb - preBend
pbr - preBendRelease
brb - bendReleaseBend
\n/ - tremolo bar dip
\n - tremolo bar dive
-/n - tremolo bar Release up
/n\ - tremolo bar inverted dip
/n - tremolo bar return
-\n - tremolo bar Release down
S - shift slide
s - legato slide
/ -  slide into from below or out of upwards
\ -  slide into from above or out of downwards
~ - vibrato
W - wide vibrato
tr - trill
TP - tremolo picking
T - tapping
S - slap
P - pop
< - fade in
^ - brush up
v - brush down
Login or Register to remove this ad.