Login or Register to remove this ad.

Haven Theme (Heroes of Might and Magic V) Guitar Tab

Submitted: Feb 27, 2011 by Bhael

5
Average: 5 (5 votes)
Download | Listen
Game: Heroes of Might and Magic V
Composer(s): Paul Anthony Romero
Style: Arrangement, Artificial harmonics, Fingerstyle

Click here for a video example.

AutoScroll: Slow | Medium | Fast
                                  Haven Theme                                   
                            Heroes of Might & Magic V
                       Paul Anthony Romero and Rob King

Capo 4 on the fourth fret



     E  E  E  E  E  E  E  E     H           E  E  E  E  E  E  E  E   
E||-----0-----------------1--|--0--------|--------------------------|
B||-----------0--1--3--3-----|-----------|-----------1-----------1--|
G||--------2-----------------|-----------|--------2-----------2-----|
D||--------------------------|-----------|-----2-----------2--------|
A||--0-----------------------|-----------|--0-----------0-----------|
E||--------------------------|-----------|--------------------------|


  E  E  E  E  E  E  E  E     E  E  E  E  E  E  Q       E  E  E  E  E  E  E  E   
--------------------------|-------------------------|--------------------------|
-----------1-----------1--|--1--------0-------------|--0-----------------------|
--------2-----------2-----|--------2-----2-----0----|--------0--------------0--|
-----2-----------2--------|-----2-----------2-------|--------------------2-----|
--0-----------0-----------|--0----------------------|-----2-----2-----2--------|
--------------------------|-------------------------|--0-----------0-----------|


  E  E  E  E  E  E  E  E     E  E  E  E  E  E  E  E     E  E  E  E  E  E  Q     
--------------------------|--0--------------------0--|--1--------0-------------|
--------1-----3--------1--|--------------------3-----|--------3-----3-----1----|
--2-----------------2-----|--------2-----------------|-----2-----------2-------|
-----3-----3-----3--------|-----2-----2-----2--------|--0----------------------|
--------------------------|--0-----------0-----------|-------------------------|
--1-----------------------|--------------------------|-------------------------|


  E  E  E  E  E  E  E  E     E  E  E  E  E  E  Q       E  E  E  E  E  E  Q     
--0-----------------------|-------------------------|-------------------------|
--------1--------------1--|--3-----1----------------|-------------------------|
--------------------2-----|--------------3-----2----|--1-----------------1----|
-----2-----2-----2--------|-----3-----3-----3-------|--------2-----4----------|
--0-----------0-----------|-------------------------|-----2-----2-----2-------|
--------------------------|--1----------------------|--0----------------------|


  E  S S Q    E  S S Q       E  S S Q    E  S S Q     
--------------------------|--------------------------|
--------------------------|--------------------------|
--2------2----2------2----|--2------2----2------2----|
--2------2----2------2----|--2------2----2------2----|
--0--0-0-0----0--0-0-0----|--0--0-0-0----0--0-0-0----|
--------------------------|--------------------------|


  E  S S E  S S E  S S E  E     E  S S E  S S E  S S E  S S  
-----------------------------|------------------------------|
--1--------------------------|------------------------------|
---------2------2------0-----|---------0--------------------|
--2------2------2------2--3--|--2------2--------------------|
--0--0-0-0--0-0-0--0-0-0-----|--2------2--------------------|
-----------------------------|--0--0-0-0--0-0-0--0-0-0--0-0-|


  E  S S E  S S E  S S E  E     E  S S E  S S E  S S E  E   
-----------------------------|--0-----------------------0--|
---------1-------------3--1--|--1--------------------3-----|
--2------2-------------2-----|--2--------------------2-----|
--3------3-------------------|-----------------------------|
-----------------------------|--0--0-0-0--0-0-0--0-0-0-----|
--1--1-1-1--1-1-1--1-1-1-----|-----------------------------|


  E  S S E  S S E  S S E  E     E  S S E  S S E  S S E  E   
--1---------0----------------|--0--------------------------|
----------------3---------1--|--1---------3---1------------|
--2---------2---2------------|--0---------0---0------------|
--0--0-0-0--0-0-0--0-0-0-----|-----------------------------|
-----------------------------|--3--3-3-3--3-3-3--3-3-3--0--|
-----------------------------|-----------------------------|


  E  S S E  S S E  S S Q       E  S S E  S S Q    Q     
----------------------------|--------------------------|
--3------1------------------|--------------------------|
--2------2------3------2----|--1------------------1----|
--3------3------3------3----|--2-------------4---------|
----------------------------|--2-----------------------|
--1--1-1-1--1-1-1--1-1-1----|--0--0-0-0--0-0-0---------|


  E  E  E  E  E    E    E    E       W                   Q.     E  Q    Q     
--------------0-----------------|--<>0----------------|----------------------|
-----------0---------------<>0--|---------------------|--1------0------------|
--2-----2-------------<>2-------|---------------------|------------2----0----|
-----2-----------<>2------------|---------------------|----------------------|
--0-----------------------------|---------------------|--0-------------------|
--------------------------------|---------------------|----------------------|


  Q    H.              Q    Q    Q.     E     H        Q    Q     
--------------------|----------------------|--0-------------0----|
--0-----------------|-------1----3------1--|-----------3---------|
-------0------------|--2-------------------|---------------------|
--------------------|----------------------|---------------------|
--------------------|----------------------|--0------------------|
--0-----------------|--1-------------------|---------------------|


  Q.     E  Q    Q       Q.     E  H           E  E  E  E  E  E  Q     
--1------0------------|--0------------------|-------------------------|
------------3----1----|---------3--1--------|--3-----1----------------|
----------------------|---------------------|--------------3-----2----|
--0-------------------|---------------------|-------------------------|
----------------------|--3------------------|-----3-----3-----3-------|
----------------------|---------------------|--1----------------------|


                            ^                  
  E  E  E  E  E  E  Q       W                  
-------------------------|-------------------||
-------------------------|-------------------||
--1-----------------1----|--2----------------||
--------2-----4----------|--2----------------||
-----2-----2-----2-------|--0----------------||
--0----------------------|-------------------||




Duration Legend
---------------
W - whole
H - half
Q - quarter
E - 8th
S - 16th
T - 32nd
X - 64th
. - note dotted
|-n-|  - n-tuplets


Tablature Legend
----------------
L - tied note
x - dead note
g - grace note
(n) - ghost note
> - accentuded note
NH - natural harmonic
AH - artificial harmonic
TH - tapped harmonic
SH - semi harmonic
PH - pitch harmonic
h - hammer on
p - pull off
b - bend
br - bendRelease
pb - preBend
pbr - preBendRelease
brb - bendReleaseBend
\n/ - tremolo bar dip
\n - tremolo bar dive
-/n - tremolo bar Release up
/n\ - tremolo bar inverted dip
/n - tremolo bar return
-\n - tremolo bar Release down
S - shift slide
s - legato slide
/ -  slide into from below or out of upwards
\ -  slide into from above or out of downwards
~ - vibrato
W - wide vibrato
tr - trill
TP - tremolo picking
T - tapping
S - slap
P - pop
< - fade in
^ - brush up
v - brush down
Login or Register to remove this ad.

3 comments on Haven Theme

I'm a huge fan of your

5

I'm a huge fan of your arrangements. They're always nicely done and very fun to play.

Thanks for sharing!

Amazing

5

I can't see anything wrong with this. Maybe the key change isn't there, and the violin solo too, but it's quite simple to add those in by one's self. What is here definitely does the original song justice! Beautiful work man.

Honestly I respect that. That

5

Honestly I respect that. That my favorite game and melody of my childhood. Thanks for writing this post!