Ads

Main Theme (Heroes of Might and Magic IV) Guitar Tab

Submitted: Sep 19, 2010 by Bhael (Last updated: Sep 20, 2010)

4.5
Average: 4.5 (4 votes)
Download | Listen
Game: Heroes of Might and Magic IV
Composer(s): Paul Anthony Romero
Style: Arrangement, Fingerstyle, Natural harmonics

AutoScroll: Slow | Medium | Fast
                                  Main Theme           
                          Heroes of Might and Magic IV                    
                                  Paul Romero




                                                                 ^   
     W                   E  E  E  H        E     E  H.           E   
E||--1----------------|-----------------------|-----3------------5--|
B||--3----------------|--3--3--3--6--------L--|--L--5------------7--|
G||--3----------------|--3--3--3--7--------L--|--L--5------------7--|
D||-------------------|-----------8--------L--|---------------------|
A||--1----------------|-----------------------|-----3------------5--|
D||-------------------|-----------5--------L--|--L------------------|


  E  H        Q.        S S S S S S S S S S S S S S S S  
--L--L--------L------|------------------5---------------|
--L--L--------L------|----------3-----------------------|
--L--L--------L------|--2---2-------2-------2-------2---|
---------------------|----2---2---2---2---4---4---4---4-|
--L--L--------L------|--0-------0-------0-------0-------|
---------------------|----------------------------------|


  S S S S S S S S S S S S S S S S    S S S S S S S S  S S S S S S S S  
------------------6---5-----------|------------------10-------8-------|
----------3-----------------------|----------3------------0-------8---|
--2---2-------2---------------2---|--2---2-------2------0---0---0---0-|
----2---2---2---2---4---4---4---4-|----3---3---3---3------------------|
--0-------0-------0-------0-------|-----------------------------------|
----------------------------------|--3-------3--------5-------5-------|


                                     ^                                
  S S S S S S S S S S S S S S S S    S S S S S S S S S S S S S S S S  
--5-------------------------------|------------------5---------------|
----------------------------------|----------3-------3---------------|
------2-------2-------2-------2---|--2---2-------2-------2-------2---|
----2---2---2---2---2---2---2---2-|----2---2---2---2---4---4---4---4-|
--0-------0-------0-------0-------|--0-------0-------0-------0-------|
----------------------------------|----------------------------------|


  S S S S S S S S S S S S S S S S    S S S S S S S S  S S S S  S S S S  
------------------6---5-----------|------------------10-------12-------|
----------3-----------3-----------|----------3------------0----0---0---|
--2---2-------2---------------2---|--2---2---2---2------0---0----0---0-|
----2---2---2---2---4---4---4---4-|----3---3---3---3-------------------|
--0-------0-------0-------0-------|------------------------------------|
----------------------------------|--3-------3--------5--------5-------|


   S  S  S  S S  S  S  S S  S  S  S S  S  S  S  
--14-------------------------------------------|
--------10---------10---------10---------10----|
-----11----11---11----11---11----11---11----11-|
---0----------0----------0----------0----------|
-----------------------------------------------|
-----------------------------------------------|


                               NH   NH   NH      NH   NH   NH 
   S  S  S  S S  S  S  S  S    S    S    S  S    S    S    S  
--13---------------------15----------------------------------|
--------10---------10------------<>12--------------<>12------|
-----10----10---10----10----<>12------<>12----<>12------<>12-|
---0----------0----------------------------------------------|
-------------------------10----------------10----------------|
-------------------------------------------------------------|


     NH   NH   NH   NH   NH   NH   NH   NH   NH   NH   NH   NH   NH   NH   NH   
     S    S    S    S    S    S    S    S    S    S    S    S    S    S    S    
----18------------------17------------------------------------------------------
--------------------------------------------------------------------------------
--------------------------------------------------------------------------------
------------<>12----------------<>12----------------<>12----------------<>12----
-------<>12------<>12------<>12------<>12------<>12------<>12------<>12------<>1
--<>12----------------<>12----------------<>12----------------<>12--------------


  S S S S S S S S S S S S S S S S    S S S S S S S S S S S S S S S S  
----------------------------------|----------------------------------|
----------------------------------|----------------------------------|
----------------------------------|----------------------------------|
--3---------------4---------------|--3---------------4---------------|
--0---0---0---0---0---0---0---0---|--0---0---0---0---0---0---0---0---|
----0---0---0---0---0---0---0---0-|----0---0---0---0---0---0---0---0-|


  S S S S S S S S S S S S S S S S    S S S S S S S S S S S S S S S S  
------------------5---------------|------------------6---5-----------|
----------3-----------------------|----------3-----------------------|
--2-------------------------------|--2-------------------------------|
--3---------------4---------------|--3---------------4---------------|
--0---0---0---0---0---0---0---0---|--0---0---0---0---0---0---0---0---|
----0---0---0---0---0---0---0---0-|----0---0---0---0---0---0---0---0-|


  E  E  E  E   E  E   E  E      E  E   E  E   E  E  E  E   
--------------10-----12-----|--14-------------------------|
--------3-------------------|-----------------------------|
--2-------------------------|----------------14-----------|
--5-------------------0-----|---------12------------------|
---------------7------------|--12-------------------------|
--3--3--3--3---5--5---5--5--|---0--0---0--0---0--0--0--0--|


   E  E   E  E   E   E  E  E     E  E  E  E  E  E  E  E   
--13--------------------------|--------------------------|
----------------11--10--------|--3-----------------3-----|
------------------------------|--3-----------5-----------|
---0-----12-------------------|--3-----------5-----------|
------------------------------|--1--1--1--1--3--3--3--3--|
---0--0---0--0---0---0--0--0--|--------------------------|


                             ^                      
  E  E  E  E  E  E  E  E     E  E  E  E  H          
--------------------------|-----------------------||
--------------------------|-----------------------||
--2-----------------------|--2--------------------||
--4-----------------------|--3--------------------||
--5--5--5--5--5--5--5--5--|-----------------------||
--------------------------|--3--3--3--3--3--------||




Duration Legend
---------------
W - whole
H - half
Q - quarter
E - 8th
S - 16th
T - 32nd
X - 64th
. - note dotted
|-n-|  - n-tuplets


Tablature Legend
----------------
L - tied note
x - dead note
g - grace note
(n) - ghost note
> - accentuded note
NH - natural harmonic
AH - artificial harmonic
TH - tapped harmonic
SH - semi harmonic
PH - pitch harmonic
h - hammer on
p - pull off
b - bend
br - bendRelease
pb - preBend
pbr - preBendRelease
brb - bendReleaseBend
\n/ - tremolo bar dip
\n - tremolo bar dive
-/n - tremolo bar Release up
/n\ - tremolo bar inverted dip
/n - tremolo bar return
-\n - tremolo bar Release down
S - shift slide
s - legato slide
/ -  slide into from below or out of upwards
\ -  slide into from above or out of downwards
~ - vibrato
W - wide vibrato
tr - trill
TP - tremolo picking
T - tapping
S - slap
P - pop
< - fade in
^ - brush up
v - brush down
Login or Register to remove this ad.

2 comments on Main Theme

To the person who gave this 4

To the person who gave this 4 stars, this tab is MUCH easier to play than it looks. Just requires a bit of stretching and thought :)

wow great job!!!

wow great job!!!