Ads

Grass Theme (Heroes of Might and Magic III) Guitar Tab

Submitted: Feb 28, 2014 by Matatiahu (Last updated: Mar 30, 2014)

5
Average: 5 (1 vote)
Download | Listen
Game: Heroes of Might and Magic III
Composer(s): Paul Anthony Romero
Style: Arrangement, Fingerstyle

Click here for a video example.

AutoScroll: Slow | Medium | Fast
Heroes of Might and Magic III
				Grass theme
			    Paul Anthony Romero
Tune: Standard



E||-----------0-3-0-----2------------0----------
B||---------1--------0-------------1---1--0-----
G||-------2----------------------2--------------
D||----------------------------2-------------4--
A||--0--------------------0---------------------
E||------------------0--------------------0-----    x4

-------------5----5--5-----------------------
---------5-6---6----------------5-6-5--------
-------7----------------------7--------------
--0--------------------0------------------7--
------------------0--------------------0-----
---------------------------------------------

-------------5-------------------------------
---------5-6---6-----5----------5-6-5--------
-------7----------------------7--------------
--0--------------------0------------------7--
------------------0--------------------0-----
---------------------------------------------

-------------0--------------------0----------
-----------1---1--0-------------1---1--0-----
---------2--------------------2--------------
-------2-------------4------2-------------4--
--0---------------------0--------------------
------------------0--------------------0-----

-----------0-3-0-----2------------0----------
---------1--------0-------------1---1--0-----
-------2----------------------2--------------
----------------------------2-------------4--
--0--------------------0---------------------
------------------0--------------------0-----

-------------0--------------------0----------
-----------0---0----------------0---0-----0--
---------2--------------------2--------------
-------3--------------------3----------------
------------------3--------------------3-----
--1--------------------1---------------------

-------------0--------------------0----------
-----------0---0-----1----------0---0--------
---------2--------------------2--------------
-------3--------------------3----------------
------------------3--------------------3-----
--1--------------------1---------------------

---------------------------------------------
-----------0------0-------------0------0-----
-------0-2---0--------------0-2---0----------
------------------2----2------------------4--
--2------------------------------------2-----
---------------------------------------------

---------------------------------------------
-----------0------0-------------0------0-----
-------0-2---0--------------0-2---0----------
-----------------------2------------------4--
------------------2--------------------2-----
--0------------------------------------------

-------------0-------
-----------1---1-----
---------2-----------
--0------------------
------------------0--
---------------------    x4


-----------0-3-0-----2------------0----------
---------1--------0-------------1---1--0-----
-------2----------------------2--------------
----------------------------2-------------4--
--0--------------------0---------------------
------------------0--------------------0-----    x2

---------------------------------------------|
---------------------------------------------|
---------------------------------------------|
---------------------------------------------|
--0--------------------0---------------------|
------------------0--------------------0-----|
Login or Register to remove this ad.