Ads

Nichijou (Hell Girl: Two Mirrors) Guitar Tab

Submitted: Jul 11, 2017 by Coolbreeze

0
Download | Listen
Game: Hell Girl: Two Mirrors
Composer(s): Yasuharu Takanashi, Hiromi Mizutani
Style: 2 or more instruments, Transcription

This song is also called Daily Life

AutoScroll: Slow | Medium | Fast
				            Nichijou
				~Jigoku Shoujo Futakomori O.S.T~

Music by Hiromi Mizutani
Performed by Kenji Fujisawa
Tabbed by Coolbreeze
Tempo = 80

Standard Tuning


Guitar 1

     E  E  Q    H           E  E  Q    H           E  E  Q    Q.     S  S  
E||--5--3--5-------------|--5--3--5-------------|--3--1--3----------------|
B||-------------3--------|-------------5--------|--------------------4h-5-|
G||----------------------|----------------------|-------------5-----------|
D||----------------------|----------------------|-------------------------|
A||----------------------|----------------------|-------------------------|
E||----------------------|----------------------|-------------------------|


  W                   E  E  Q    H           E  E  Q    H         
-------------------|--5--3--5-------------|--5--3--5-------------|
--3----------------|-------------3--------|-------------5--------|
-------------------|----------------------|----------------------|
-------------------|----------------------|----------------------|
-------------------|----------------------|----------------------|
-------------------|----------------------|----------------------|


  E  E  Q    Q    Q       Q    H.              E  E  Q    H         
--3--1--3---------8----|--3----1------------|-------------1--------|
-----------------------|--------------------|--3--1--3-------------|
-------------5---------|--------------------|----------------------|
-----------------------|--------------------|----------------------|
-----------------------|--------------------|----------------------|
-----------------------|--------------------|----------------------|


  H        Q    Q       E  E  Q    H           W                 
-----------0----5----|--1--0--1----5--------|-------------------|
---------------------|----------------------|-------------------|
---------------------|----------------------|-------------------|
---------------------|----------------------|-------------------|
---------------------|----------------------|-------------------|
---------------------|----------------------|-------------------|


  W                   E  E  Q    H           E  E  Q    H         
-------------------|--5--3--5-------------|--5--3--5----8--------|
-------------------|-------------3--------|----------------------|
-------------------|----------------------|----------------------|
-------------------|----------------------|----------------------|
-------------------|----------------------|----------------------|
-------------------|----------------------|----------------------|


  E  E  Q    Q.     S  S    W                   E  E  Q    H         
--3--1--3----------------|-------------------|--5--3--5-------------|
-------------1------4h-5-|--3----------------|-------------3--------|
-------------------------|-------------------|----------------------|
-------------------------|-------------------|----------------------|
-------------------------|-------------------|----------------------|
-------------------------|-------------------|----------------------|


  E  E  Q    Q    Q       E  E  Q    Q.     E     E  E    H.            
--5--3--5----8----3----|--3--1--3--------------|-----0--0g1------------|
-----------------------|-------------1------1--|--3--------------------|
-----------------------|-----------------------|-----------------------|
-----------------------|-----------------------|-----------------------|
-----------------------|-----------------------|-----------------------|
-----------------------|-----------------------|-----------------------|


  E  E  Q    H           E  E  E  E  H           E  E  Q    Q    Q     
-------------0--------|--------0--1--3--------|-------------0---------|
--3--1--3-------------|-----3-----------------|--3--1--3---------1----|
----------------------|-----------------------|-----------------------|
----------------------|-----------------------|-----------------------|
----------------------|-----------------------|-----------------------|
----------------------|-----------------------|-----------------------|


  H.           Q       Q    Q    Q    Q       Q    H.            
--1-----------------|-------0----1----3----|--L----5------------|
---------------3----|--3-------------------|--------------------|
--------------------|----------------------|--------------------|
--------------------|----------------------|--------------------|
--------------------|----------------------|--------------------|
--------------------|----------------------|--------------------|


  W                  
-------------------||
-------------------||
-------------------||
-------------------||
-------------------||
-------------------||




Guitar 2

     ^                   ^                   ^                 
     W                   W                   W                 
E||-------------------|-------------------|--1----------------|
B||--3----------------|--3----------------|--1----------------|
G||--3----------------|--3----------------|--0----------------|
D||--3----------------|--5----------------|--3----------------|
A||--5----------------|--3----------------|--3----------------|
E||--3----------------|--3----------------|-------------------|


  ^                       ^                   ^                 
  H        E  E  E  E     W                   W                 
-----------------------|-------------------|-------------------|
--3--------------------|--3----------------|--3----------------|
--2-----------------2--|--3----------------|--3----------------|
--0-----------0--3-----|--3----------------|--5----------------|
--1--------1-----------|--5----------------|--3----------------|
-----------------------|--3----------------|--3----------------|


  ^                   ^                       ^                 
  W                   H        E  E  E  E     W                 
--1----------------|-----------------------|-------------------|
--1----------------|--3--------------------|--3----------------|
--0----------------|--2--------------2-----|--3----------------|
--3----------------|--0-----------0-----3--|--3----------------|
--3----------------|--1--------1-----------|--5----------------|
-------------------|-----------------------|--3----------------|


  ^                   ^                   ^                     
  W                   W                   H        E  E  E  E   
--1----------------|-------------------|-----------------------|
--1----------------|--3----------------|--3-----------------3--|
--0----------------|--2----------------|--3--------------3-----|
--3----------------|--0----------------|--3-----------3--------|
--3----------------|--1----------------|--3--------3-----------|
-------------------|-------------------|-----------------------|


  ^                   ^                   ^                   ^                 
  W                   W                   W                   W                 
--3----------------|-------------------|-------------------|--1----------------|
--5----------------|--3----------------|--3----------------|--1----------------|
--3----------------|--3----------------|--3----------------|--0----------------|
--5----------------|--3----------------|--5----------------|--3----------------|
--3----------------|--5----------------|--3----------------|--3----------------|
-------------------|--3----------------|--3----------------|-------------------|


  ^                   ^                   ^                   ^                 
  W                   W                   W                   W                 
-------------------|-------------------|-------------------|--1----------------|
--3----------------|--3----------------|--5----------------|--1----------------|
--2----------------|--3----------------|--3----------------|--0----------------|
--3----------------|--3----------------|--5----------------|--3----------------|
--1----------------|--5----------------|--3----------------|--3----------------|
-------------------|--3----------------|-------------------|-------------------|


  ^                       ^        ^           ^        ^         
  H        E  E  E  E     H        H           H        H         
-----------------------|-----------0--------|-----------3--------|
--3--------------3-----|--3--------1--------|--3--------3--------|
--2-----------------2--|--3--------0--------|--2--------5--------|
--0-----------0--------|--3--------2--------|--3--------5--------|
--1--------1-----------|--5--------0--------|--1--------3--------|
-----------------------|--3-----------------|--------------------|


  ^        ^           ^                      ^                  
  H        H           H        E  E  Q       H        H         
-----------0--------|--1-------------------|--------------------|
--3--------1--------|--3--------------3----|--3--------3--------|
--3--------0--------|--2--------------2----|--3--------3--------|
--3--------2--------|--3--------0--3-------|--3--------3--------|
--5--------0--------|--1-------------------|--3-----------------|
--3-----------------|----------------------|--------------------|


       ^                                         
  Q    E  E  E  E  E  E     E  E  H.             
-------------------0-----|---------------------||
--L----1--------1-----1--|---------------------||
--L----2-----------------|---------------------||
--L----3-----3-----------|--3------------------||
-------3--3--------------|-----3---------------||
-------1-----------------|--------1------------||
Login or Register to remove this ad.