Ads

Night Dance (Hatsuyuki Sakura) Guitar Tab

Submitted: Jul 06, 2016 by Uminari

5
Average: 5 (4 votes)
Download | Listen
Game: Hatsuyuki Sakura
Composer(s): Ryo Mizutsuki
Style: Arrangement, Fingerstyle, Natural harmonics

AutoScroll: Slow | Medium | Fast
                                  Night Dance                                   
                             from Hatsuyuki Sakura                              


Guitar (Capo 3)
      E  E  E  E  E  E  E  E     E  E  E  E  E  E  E  E   
E ||-----------------0--2-----|--------------------------|
A ||-----------------------4--|--------------------------|
F#||--------------------------|--2-----------0-----------|
D ||--------------------------|-----0-----2--------------|
A ||-----0-----0-----0-----0--|-----------0-----0-----0--|
D ||--0-----------------------|--0-----------------------|


                                         ^            
  E  E  E  E  E  E  E  E     E  E  E  E  E  E  E  E   
-----------------0--2-----|--------------------------|
-----------------------2--|--------------4-----------|
--------------------------|--2-----------2-----------|
--------------------------|-----2-----2-----2-----2--|
-----0-----0-----0-----0--|--0-----------------------|
--0-----------------------|--------------------------|


                                            ^         
  E  E  E  E  E  E  E  E     E  E  E  E  E  E  E  E   
--------------------------|-----------------0--2-----|
--------------------------|-----0-----0-----0-----4--|
--------------------------|-----------------------3--|
-----2-----2-----2-----2--|--0-----------------------|
--0-----------------------|--------------------------|
--------------------------|--------------------------|


  E  E  E  E  E  E  E  E     E  E  E  E  E  E  E  E   
--------------------------|-----------------2--4--0--|
-----------0-----0-----0--|-----0-----0-----0-----0--|
--2-----------0-----------|--------------------------|
-----0-----2--------------|--0-----------------------|
--------------------------|--------------------------|
--0-----------------------|--------------------------|


  E  E  E  E  E  E  E  E     E  E  E  E  E  E  E  E   
--------------------------|--------------------------|
--2-----------4-----------|--------------------------|
-----------2--------------|--------------------------|
-----2-----2-----2-----2--|-----2-----2-----2-----2--|
--0-----------------------|--0-----------------------|
--------------------------|--------------------------|


  E  E  E  E  E  E  E  E     E  E  E  E  E  E  E  E   
--------------------------|--------------------------|
--4--2--2--4-----0-----0--|-----0-----0-----0--------|
-----3-----3--0-----------|-----------------------0--|
--0-----------------------|--0-----------------2-----|
--------------------------|--------------------------|
--------------------------|--------------------------|


  E  E  E  E  E  E  E  E     E  E  E  E  E  E  E  E  E  E  E  E  E  E   
--------------------------|--------------------------------------------|
--4--0-----4--4--2--2--4--|--------------------------------------------|
-----5--5--3--------------|--------------------------------------------|
--0--------------2-----2--|--2--------2-----2-----2-----2-----2-----2--|
--------------0-----------|-----0--------0-----------------------0-----|
--------------------------|--------------------------------------------|


  E  E  E  E  E  E  E  E     E  E  E  E  E  E  E  E   
--------------------------|--------------------------|
--4--2--2--4-----0-----0--|-----0-----0-----0--------|
-----3-----3--0-----------|-----------------------0--|
--0-----------------------|--0-----------------2-----|
--------------------------|--------------------------|
--------------------------|--------------------------|


  E  E  E  E  E  E  E  E     E  E  E  E  E  E  E  E  E  E  E  E  E  E   
--------------------------|-----------------------------------0--2-----|
--4--0-----4--4--2--2--4--|-----------------------------------------4--|
-----5--5--3--------------|--2-----------------------------------------|
--0--------------2-----2--|-----2-----2-----2-----2-----2-----2-----2--|
--------------0-----------|--------------0-----------------------------|
--------------------------|--------------------------------------------|


  E  E  E  E  E  E  E  E     E  E  E  E  E  E  E  E   
--------------------------|--------------------------|
-----------------0-----0--|-----0-----0--------------|
--2--------3--0-----------|-----------------0--2-----|
--0--------2--------------|--0--------------------2--|
--------------------------|--------------------------|
-----0--------------------|--------------------------|


                                            ^         
  E  E  E  E  E  E  E  E     E  E  E  E  E  E  E  E   
--------------------------|-----------------0--2-----|
--------------0-----------|-----------------0-----4--|
-----------2--------------|-----------------------3--|
--2--------------2-----2--|-----2-----2--------------|
--0-----------------------|--0-----------------------|
-----2--------------------|--------------------------|


                                            ^         
  E  E  E  E  E  E  E  E     E  E  E  E  E  E  E  E   
-----------0--2-----------|-----------------2--4--0--|
-----0-----0--2-----------|-----0-----0-----0-----0--|
--2--------------3-----3--|--------------------------|
--0-----------------------|--0-----------------------|
--------------------------|--------------------------|
--------------------------|--------------------------|


  E  E  E  E  E  E  E  E     E  E  E  E  E  E  E  E   
--------------------------|--------------------------|
--2-----------4-----------|--------------------------|
-----------2--------------|--------------------------|
-----2-----2-----2-----2--|-----2-----2-----2-----2--|
--0-----------------------|--0-----------------------|
--------------------------|--------------------------|


     ^                       ^                        
  E  E  E  E  E  E  E  E     E  E  E  E  E  E  E  E   
--------------------------|--------------------------|
-----0-----0-----0-----0--|-----0-----0-----0-----0--|
--5--7--5--7--5--7--5--7--|--0-----------------------|
--0-----------------------|--0-----------------------|
--------------------------|--------------------------|
--------------------------|--------------------------|


  E  E  E  E  E  E  E  E     E  E  E  E  E  E  E  E   
--------------------------|--------0-----------------|
--------------------------|-----4--------------------|
--2--3--2--3--------------|--5-----------------------|
-----2--------2--------2--|-----------2-----2-----2--|
--0-----------0-----------|--0-----------------------|
-----------------2--------|--------------------------|


     ^                       ^                        
  E  E  E  E  E  E  E  E     E  E  E  E  E  E  E  E   
--------------------------|--------------------------|
-----0-----0-----0-----0--|-----0-----0-----0-----0--|
--5--7--5--7--5--7--5--7--|--0-----------------------|
--0-----------------------|--0-----------------------|
--------------------------|--------------------------|
--------------------------|--------------------------|


     ^             ^                       ^                
     E  E  E  E    E  E  E  E     E  E  E  E   E  E  E  E   
--<>12-----------<>5-----------|-----------5p--4--0--------|
--<>12-----------<>5-----------|-----4-----4------4-----4--|
--------7-----7-------7-----7--|--0------------------------|
-------------------------------|---------------------------|
-------------------------------|---------------------------|
-------------------------------|---------------------------|


                 ^                                    
  E  E  E  E  E  E  E  E     E  E  E  E  E  E  E  E   
--------------------------|--------------------------|
-----0-----0-----0--------|-----0-----0-----0-----4--|
-----------------0--0--7--|--0--------------------3--|
--0--------------------7--|--0--------------2--4-----|
--------------------------|--------------------------|
--------------------------|--------------------------|


  E  E  E  E  E  E  E  E     E  E  E  E  E  E  E  E   
--------------------------|--------------------------|
--2-----------------------|-----------------2--2--4--|
-----------2--------------|--------------------------|
-----2-----------2-----2--|-----2-----2-----2-----2--|
--0-----------4-----------|--0-----------------------|
--------------------------|--------------------------|


                             Rallentando                       
                                                     ^         
  E  E  E  E  E  E  E  E     E           E  E  E  E  E  E  E   
--------------------------|-----------------------------------|
-----------------2--2--4--|--------------------------------4--|
--0-----------------------|-----------------------------------|
--------------------------|--2-----------------------2--2-----|
-----4-----4-----4-----4--|--------------0-----0-----0-----0--|
--4-----------------------|--0--------------------------------|


  E  E  E  E  E  E  E  E     E  E  E  E  E  E  E  E   
-----------------------0--|--------------------------|
--------------------4-----|-----------------2--2--4--|
-----------------5--------|--------------------------|
--2--------7--------------|--------------------------|
--0-----------7-----------|-----0-----0-----0-----0--|
-----2--------------------|--2-----------------------|


                                                        Fermata           
                                                        ^                 
  E  E  E  E  E  E  E  E     E  E  E  E  E  E  E  E     W                 
--------------------------|--------------------------|-------------------|
-----------------2--2--4--|-----------------------4--|-------------------|
--0-----------------------|-----------------0--0-----|-------------------|
--------------------------|--2-----------------------|--2----------------|
-----4-----4-----4-----4--|-----0-----0--------------|--0----------------|
--4-----------------------|--0-----------------------|-------------------|


                ^                              
  S S S E  E  S H           W                  
--5-4--------------------|-------------------||
------7---------4--------|-------------------||
--------5-------5--------|-------------------||
--------------6----------|-------------------||
----------------0--------|-------------------||
-------------------------|-------------------||




Duration Legend
---------------
W - whole
H - half
Q - quarter
E - 8th
S - 16th
. - note dotted


Tablature Legend
----------------
p - pull-off
NH - natural harmonic
^ - brush up
Login or Register to remove this ad.

1 comment on Night Dance

amazing

5

So good tears are brought to my eyes.