Winter Theme (Harvest Moon) Guitar Tab

Submitted: Jun 22, 2009 by ItsAllMeaningless (Last updated: Feb 04, 2010)

4.5
Average: 4.5 (2 votes)
Download | Listen
Game: Harvest Moon
Composer(s): Tanaka Tuyoshi
Style: Arrangement, Fingerstyle
Series: Harvest Moon

AutoScroll: Slow | Medium | Fast
Name of song : Winter Theme
Name of game : Harvest Moon
Composer of song : Tanaka Tuyoshi
Name of tabber : Andrew Craig (ItsAllMeaningless)
Date tab was made : June 12, 2009





                          Harvest Moon - Winter Theme                   



     E  E  Q    Q       E  E  Q    Q       E  E  Q    Q       E  E  Q    Q     
E||------------------|------------------|-----0------------|------------------|
B||--1---------------|--0---------------|--3---------------|--0--1-------0----|
G||-----2------------|-----1------------|------------------|--------2----0----|
D||--2----------2----|-------------2----|-------------0----|------------------|
A||--------0---------|------------------|------------------|------------------|
E||------------------|--------4---------|--------3---------|------------------|


    E  E  E  E  E  E     Q    Q    Q       Q    Q    Q       Q    Q    Q     
|---------------------|--0--------------|-----------------|-----------------|
|---1--3--1--3--1--3--|-------3----1----|--3----1----0----|--1----0---------|
|*--------------------|-----------------|-----------------|------------2----|
|*--------2-----2-----|-------2----2----|-------2----2----|-------2----2----|
|---0-----------------|-----------------|-----------------|-----------------|
|---------------------|--4--------------|--3--------------|--2--------------|


  E  E  E  E  E  E     Q    Q    Q       Q    Q    Q       Q    H         
--------------------|--0--------------|-----------------|----------------|
--1--3--1--3--1--3--|-------3----1----|--3----1----0----|--1-------------|
--------------------|-----------------|-----------------|----------------|
--------2-----2-----|-------2----2----|-------2----2----|-------2--------|
--0-----------------|-----------------|-----------------|----------------|
--------------------|--4--------------|--3--------------|--2-------------|


  E  E  E  E  E  E     Q    Q    Q       Q    Q    Q       Q    Q    Q     
--------------------|--0--------------|-------1----0----|-----------------|
--1--3--1--3--1--3--|-------3----1----|--3--------------|--3----1----0----|
--------------------|-----------------|-----------------|-----------------|
--------2-----2-----|-------2----2----|-------2----2----|-------2----2----|
--0-----------------|-----------------|-----------------|-----------------|
--------------------|--4--------------|--3--------------|--2--------------|


  E  E  E  E  E  E     Q    Q    Q       E  E  E  E  E  E     Q    H         
--------------------|--0--------------|--------------------|----------------|
--1--3--1--3--1--3--|-----------------|--0--------0--3--1--|--0-------------|
--------------------|-------2---------|--------------------|----------------|
--------2-----2-----|-------2----2----|--------2-----2-----|-------2--------|
--0-----------------|-----------------|--------------------|----------------|
--------------------|--4--------------|--3-----------------|--2-------------|


  E  E  E  E  Q       Q    Q    Q       Q    Q    Q       H.            
-------------------|-----------------|-----------------|---------------|
-------------------|--1---------1----|--3--------------|--1------------|
--2-----------2----|--0--------------|------------2----|---------------|
--------2--0--2----|-------3----2----|--0---------0----|--2------------|
--0--3-------------|-----------------|-------3---------|---------------|
-------------------|-----------------|-----------------|---------------|


  E  E  E  E  Q       Q    Q    Q       Q    Q    Q       H        E  E   
-------------------|-----------------|------------1----|--0--------2--4--|
-------------------|--1---------1----|--3--------------|-----------------|
--2-----------2----|--0--------------|-----------------|-----------------|
--------2--0--2----|-------3----2----|--0---------0----|-----------------|
--0--3-------------|-----------------|-------3---------|--2--------------|
-------------------|-----------------|-----------------|-----------------|


  E  E  E  E  E  E     E  E  E  E  E  E     E  E  E  E  E  E   
--5-----------5-----|--3-----------3-----|--2-----------------|
-----------0-----3--|--5--3--1--3--1--0--|--------3--0--1--3--|
--2--0--2-----5-----|--------------------|--2--0--2-----------|
--------------------|--------------------|--------------------|
--------------------|--------------------|--------------------|
--------------------|--------------------|--------------------|


  E  E  E  E  E  E     E  E  E  E  E  E     E  E  E  E  E  E   
--1-----0--1--0-----|--0-----------------|--0-----2-----4-----|
-----3-----------3--|--------3--0--1--3--|-----3--1--3-----0--|
--2-----0-----------|--2--0--2-----------|--2-----------5-----|
--------------------|--------------------|--------------------|
--------------------|--------------------|--------------------|
--------------------|--------------------|--------------------|


  Q    Q    Q       H        Q         H.             
--5--------------|-----------------||---------------||
-------5---------|-----------0-----||---------------||
------------5----|--2--------0----*||--2------------||
--7--------------|----------------*||---------------||
-----------------|-----------------||---------------||
-----------------|-----------------||---------------||




Duration Legend
---------------
W - whole
H - half
Q - quarter
E - 8th
S - 16th
T - 32nd
X - 64th
. - note dotted
|-n-|  - n-tuplets
Login or Register to remove this ad.

2 comments on Winter Theme

Intro

In case you were wondering: the little bit at the beginning was an intro made by me, I felt the start of the piece was too abrupt.

Cheers!

Good job!

4

Awesome job man, maybe just comment out where your custom into ends :)