Star Night Festival (Harvest Moon) Bass/Guitar Tab

Submitted: May 15, 2009 by BooDoo (Last updated: Apr 05, 2010)

0
Download | Listen
Game: Harvest Moon
Composer(s): Tanaka Tuyoshi
Style: 2 or more instruments, Transcription
Series: Harvest Moon

AutoScroll: Slow | Medium | Fast
Star Night Festival -- Harvest Moon (SNES)

Composed by: CHACKey (http://www.venus.dti.ne.jp/~chackey/)

Tempo: Q=~100
Key of D (##), originally in C# (#######)


The Harmony and bass repeat throughout the song:

Harmony: (let ring, repeat)
      E   E   H.                         E   E   H.
e||-----------------------------------|----------0-----------------------|
B||-----------3-----------------------|------0---------------------------|
G||*------2---------------------------|---------------------------------*|
D||*--0-------------------------------|--2------------------------------*|
A||-----------------------------------|----------------------------------|
E||-----------------------------------|----------------------------------|


Bass: (repeats)
e||-----------------------------------|----------------------------------|
B||-----------------------------------|----------------------------------|
G||*----------------------------------|---------------------------------*|
D||*----------------------------------|---------------------------------*|
A||-----0-------0-------0-------0-----|----2-------2-------2-------2-----|
D||---0---2-0-0---2-0-0---2-0-0---2-0-|--2---4-2-2---4-2-2---4-2-2---4-2-|

OR

G||-----------------------------------|----------------------------------|
D||*----7-------7-------7-------7-----|----9-------9-------9-------9----*|
A||*--5---7-5-5---7-5-5---7-5-5---7-5-|--7---9-7-7---9-7-7---9-7-7---9-7*|
E||-----------------------------------|----------------------------------|


Lead/Melody: (with soft echo/delay)

Section 1 (Bar 1)
      E  E  E  E  E  E  E  E     Q    H.              E  E  E  E  E  E  E  E
E||------3--3--2--3--2--3--5--|--L----0------------|-----3--3--2--3--2--3--5--|
B||---------------------------|--------------------|--------------------------|
G||*--------------------------|--------------------|--------------------------|
D||*--------------------------|--------------------|--------------------------|
A||---------------------------|--------------------|--------------------------|
D||---------------------------|--------------------|--------------------------|


  Q    H.                E  E  E  E  E  E  E  E     Q    H.            
--L----7-------------|------3--3--2--3--2--3--5--|--L----0------------|
---------------------|---------------------------|--------------------|
---------------------|---------------------------|--------------------|
---------------------|---------------------------|--------------------|
---------------------|---------------------------|--------------------|
---------------------|---------------------------|--------------------|

                                                   Section 2 (Bar 9)
  E  E  E  E  E  E  E  E     Q    H        E  S S    H        E  Q    E   
-----3--3--2--3--2--3--5--|--L----7-----------L---|--2-----------3----2--|
--------------------------|-------------------3-5-|----------------------|
--------------------------|-----------------------|----------------------|
--------------------------|-----------------------|----------------------|
--------------------------|-----------------------|----------------------|
--------------------------|-----------------------|----------------------|


  H.           E  S S    H        E  Q    E     E  H.           E   
--0-------------------|--2-----------3----5--|--L--0------------L--|
------------------3-5-|----------------------|---------------------|
----------------------|----------------------|---------------------|
----------------------|----------------------|---------------------|
----------------------|----------------------|---------------------|
----------------------|----------------------|---------------------|

"Fast Part" (Bar 13)
    S S S S S S S S S S S S S S S S    S S S S S S S S S S S Q    S  
|-----------------------------------|------------------0------------|
|---2-3-2-3-2-3-2-3-2-3-2-3-2-3-2-3-|--2-3-2-3-2-3-2-3---3---2----L-|
|*----------------------------------|-------------------------------|
|*----------------------------------|-------------------------------|
|-----------------------------------|-------------------------------|
|-----------------------------------|-------------------------------|


  S S S S S S S S S S S S S S S S    S S S S S S S S S E  Q    S    
----------------------------------|-----------------------0-------||
--2-3-2-3-2-3-2-3-2-3-2-3-2-3-2-3-|--2-3-2-3-2-3-2-3-2-3----------||
----------------------------------|------------------------------*||
----------------------------------|------------------------------*||
----------------------------------|-------------------------------||
----------------------------------|-------------------------------||

"Slow Lead" (Bar 21)
  E  H.           E     Q    H.              E  H.           E   
-----2------------3--|--L-----------------|-----2------------3--|
---------------------|-------5------------|---------------------|
---------------------|--------------------|---------------------|
---------------------|--------------------|---------------------|
---------------------|--------------------|---------------------|
---------------------|--------------------|---------------------|


  E  H.           S S    E  H.           E     E  Q    H        S S  
----------------------|------------------0--|--L-------0------------|
-----5------------3-2-|--3--3---------------|-----0-------------3-2-|
----------------------|---------------------|-----------------------|
----------------------|---------------------|-----------------------|
----------------------|---------------------|-----------------------|
----------------------|---------------------|-----------------------|


  W                   H.           E  S S    W                 
-------------------|----------------------|-------------------|
--3----------------|------------------3-2-|--3----------------|
-------------------|----------------------|-------------------|
-------------------|----------------------|-------------------|
-------------------|----------------------|-------------------|
-------------------|----------------------|-------------------|


  H.           E  S S    W                   W                  
----------------------|-------------------|-------------------||
------------------3-2-|--3----------------|-------------------||
----------------------|-------------------|-------------------||
----------------------|-------------------|-------------------||
----------------------|-------------------|-------------------||
----------------------|-------------------|-------------------||
Login or Register to remove this ad.

1 comment on Star Night Festival

Tempo is closer to Q=95

Quick note on the timing: the tempo is closer to 93-95 than 100 as uploaded.

If you tried to play along to the original track (SPC file) you would find out quickly enough.

Also: you can move the lead for 'Fast Part' up an octave (12 frets, or 1 string+7 frets) to sound more like the original, like:

e| 910-910-910-910-910-910-910-910|910-910-910-9101210-9-----|