Spring Theme (Harvest Moon) Guitar Tab

Submitted: Oct 23, 2014 by hslesperance

0
Download | Listen
Game: Harvest Moon
Composer(s): Tanaka Tuyoshi
Style: 2 or more instruments, Transcription
Series: Harvest Moon

AutoScroll: Slow | Medium | Fast
Spring Theme
Harvest Moon
Composed by Tsuyoshi Tanaka
Tabbed by hslesperance
10/23/14

Guitars 1,2,4 - Standard Tuning
Guitar 3 - Drop D Tuning (DADGBe)


Guitar 1

   H       Q     H       Q     Q   Q    Q      H.
|-------------|-10----------|-12-------10---|--------|
|-12------13--|-------------|-----13--------|-12-----|
|-------------|---------12--|---------------|--------|
|-------------|-------------|---------------|--------|
|-------------|-------------|---------------|--------|
|-------------|-------------|---------------|--------|


   H       Q     Q    H        Q   Q    Q      H.
|-------------|-10----------|---------------|-10-----|
|-12------13--|-------------|-13--12---13---|--------|
|-------------|------12-----|---------------|--------|
|-------------|-------------|---------------|--------|
|-------------|-------------|---------------|--------|
|-------------|-------------|---------------|--------|


   H       Q     H       Q     Q   Q    Q      H.
|-------------|-10----------|-12-------10---|--------|
|-12------13--|-------------|-----13--------|-12-----|
|-------------|---------12--|---------------|--------|
|-------------|-------------|---------------|--------|
|-------------|-------------|---------------|--------|
|-------------|-------------|---------------|--------|


   H       Q     Q    H        Q   Q    Q     H.
|-------------|-10----------|--------------|--------|
|-12------13--|-------------|-13--12---10--|--------|
|-------------|------12-----|--------------|-12-----|
|-------------|-------------|--------------|--------|
|-------------|-------------|--------------|--------|
|-------------|-------------|--------------|--------|


  Q   Q   q     Q   Q    Q     H          Q      H.
|-------------|--------------|-----------------|-----------------|
|-7-------7---|-7---8---10---|-8---------------|-----------------|
|-------------|--------------|------------9----|-7---------------|
|-------------|--------------|-----------------|-----------------|
|-------------|--------------|-----------------|-----------------|
|-------------|--------------|-----------------|-----------------|


  Q   Q   q     Q   Q    Q     H           Q      H.
|-------------|--------------|-7----------------|-----------------|
|-7-------7---|-7---8---10---|------------10----|-8---------------|
|-------------|--------------|------------------|-----------------|
|-------------|--------------|------------------|-----------------|
|-------------|--------------|------------------|-----------------|
|-------------|--------------|------------------|-----------------|


  Q   Q   q     Q   Q    Q     H          Q      H.
|-------------|--------------|-----------------|-----------------|
|-7-------7---|-7---8---10---|-8---------------|-----------------|
|-------------|--------------|------------9----|-7---------------|
|-------------|--------------|-----------------|-----------------|
|-------------|--------------|-----------------|-----------------|
|-------------|--------------|-----------------|-----------------|


   Q  Q  q    Q   Q   Q    H.           q  H
|-----------|------------|-----------|----------*|
|--7-----7--|-7---8--10--|-8---------|--8-------*|
|-----------|------------|-----------|----------*|
|-----------|------------|-----------|----------*|
|-----------|------------|-----------|----------*|
|-----------|------------|-----------|----------*|




Guitar 2

   H.            H.            q   E E  E E    H.
|-------------|-------------|--2-----3--2-3-|--------|
|--0----------|--3----------|---------------|--3-----|
|-------------|-------------|---------------|--------|
|-------------|-------------|---------------|--------|
|-------------|-------------|---------------|--------|
|-------------|-------------|---------------|--------|


   H.            H.            q   E E  E E    H.
|-------------|-------------|---------------|--------|
|--0----------|--3----------|--1-----3--1-3-|--0-----|
|-------------|-------------|---------------|--------|
|-------------|-------------|---------------|--------|
|-------------|-------------|---------------|--------|
|-------------|-------------|---------------|--------|


   H.            H.            q   E E  E E    H.
|-------------|-------------|--2-----3--2-3-|--------|
|--0----------|--3----------|---------------|--3-----|
|-------------|-------------|---------------|--------|
|-------------|-------------|---------------|--------|
|-------------|-------------|---------------|--------|
|-------------|-------------|---------------|--------|


   H.            H.            q   E E  Q     H.
|-------------|-------------|--------------|--------|
|--0----------|--3----------|--1-----3-----|--------|
|-------------|-------------|-----------2--|--0-----|
|-------------|-------------|--------------|--------|
|-------------|-------------|--------------|--------|
|-------------|-------------|--------------|--------|


  E E E E E E   E E E E  E E   E   E E  E E  E   E   E E  E E  E
|-------------|--------------|-----------------|-----------------|
|-------------|--------------|-8--10-8-10-8-10-|-8--10-8-10-8-10-|
|-7-9-7-9-7-9-|-7-9-7-9--7-9-|-----------------|-----------------|
|-------------|--------------|-----------------|-----------------|
|-------------|--------------|-----------------|-----------------|
|-------------|--------------|-----------------|-----------------|


  E E E E E E   E E E E  E E   E   E E  E  E  E   E   E E  E E  E
|-------------|--------------|------------------|-----------------|
|-------------|--------------|-8--10-8-10--8-10-|-8--10-8-10-8-10-|
|-7-9-7-9-7-9-|-7-9-7-9--7-9-|------------------|-----------------|
|-------------|--------------|------------------|-----------------|
|-------------|--------------|------------------|-----------------|
|-------------|--------------|------------------|-----------------|


  E E E E E E   E E E E  E E   E   E E  E E  E   E   E E  E E  E
|-------------|--------------|-----------------|-----------------|
|-------------|--------------|-8--10-8-10-8-10-|-8--10-8-10-8-10-|
|-7-9-7-9-7-9-|-7-9-7-9--7-9-|-----------------|-----------------|
|-------------|--------------|-----------------|-----------------|
|-------------|--------------|-----------------|-----------------|
|-------------|--------------|-----------------|-----------------|


   H     Q    Q   Q   Q    H      Q     q  H
|-----------|-8--10------|-----------|-15-------*|
|-10--------|--------10--|-8---------|----------*|
|--------7--|------------|-----------|----------*|
|-----------|------------|-----------|----------*|
|-----------|------------|-----------|----------*|
|-----------|------------|-----------|----------*|




Guitar 3

   q   q   q     q   q   q     Q   q    Q      H.
|-------------|-------------|---------------|--------|
|-------------|-------------|---------------|--------|
|-------------|-------------|---------------|--------|
|-------------|-------------|---------------|--------|
|----------2--|----------2--|--3---0----0---|--2-----|
|--5---0------|--5---0------|---------------|--------|


   q   q   q     q    q  q     Q   q    Q      H.
|-------------|-------------|---------------|--------|
|-------------|-------------|---------------|--------|
|-------------|-------------|---------------|--------|
|-------------|-------------|------2--------|--------|
|----------2--|----------2--|--3--------0---|--2-----|
|--5---0------|--5----0-----|---------------|--------|


   q   q   q     q   q   q     Q   q    Q      H.
|-------------|-------------|---------------|--------|
|-------------|-------------|---------------|--------|
|-------------|-------------|---------------|--------|
|-------------|-------------|---------------|--------|
|----------2--|----------2--|--3---0----0---|--2-----|
|--5---0------|--5---0------|---------------|--------|


   q   q   q     q    q  q     H        Q     H.
|-------------|-------------|--------------|--------|
|-------------|-------------|--------------|--------|
|-------------|-------------|--------------|--------|
|-------------|-------------|--------------|--------|
|----------2--|----------2--|--3--------0--|--------|
|--5---0------|--5----0-----|--------------|--5-----|


  Q   q   Q     Q   Q    Q     H.                H.
|-------------|--------------|-----------------|-----------------|
|-------------|--------------|-----------------|-----------------|
|-------------|--------------|-----------------|-----------------|
|-0-----------|-0--------0---|-----------------|-----------------|
|-----0---0---|-----0--------|-2---------------|-----------------|
|-------------|--------------|-----------------|-5---------------|


  Q   q   Q     Q   Q    Q     H.                 H.
|-------------|--------------|------------------|-----------------|
|-------------|--------------|------------------|-----------------|
|-------------|--------------|------------------|-----------------|
|-0-----------|-0------------|------------------|-----------------|
|-----0---0---|-----0----3---|-2----------------|-----------------|
|-------------|--------------|------------------|-5---------------|


  Q   q   Q     Q   Q    Q     H.                H.
|-------------|--------------|-----------------|-----------------|
|-------------|--------------|-----------------|-----------------|
|-------------|--------------|-----------------|-----------------|
|-0-----------|-0--------0---|-----------------|-----------------|
|-----0---0---|-----0--------|-2---------------|-----------------|
|-------------|--------------|-----------------|-5---------------|


   Q  q  Q    Q   Q   Q    Q   Q  Q     Q  H
|-----------|------------|-----------|----------*|
|-----------|------------|-----------|----------*|
|-----------|------------|-----------|--0-------*|
|--0--------|-0----------|--------0--|----------*|
|-----0--0--|-----0------|-----2-----|----------*|
|-----------|---------4--|-5---------|----------*|




Guitar 4

  H    Q    H    Q    Q  Q  Q    H.
|---------|---------|----------|-------|
|---------|-0-------|-1-----1--|-0-----|
|-0----2--|------0--|----2-----|-------|
|---------|---------|----------|-------|
|---------|---------|----------|-------|
|---------|---------|----------|-------|


  H    Q    Q  H      Q  Q  Q    H.
|---------|---------|----------|-------|
|---------|-0-------|-1--0--1--|-3-----|
|-0----2--|----0----|----------|-------|
|---------|---------|----------|-------|
|---------|---------|----------|-------|
|---------|---------|----------|-------|


  H    Q    H    Q    Q  Q  Q    H.
|---------|---------|----------|-------|
|---------|-0-------|-1-----1--|-0-----|
|-0----2--|------0--|----2-----|-------|
|---------|---------|----------|-------|
|---------|---------|----------|-------|
|---------|---------|----------|-------|


  H    Q    Q  H      Q  Q  Q    H.
|---------|---------|----------|-------|
|---------|-0-------|-1--0-----|-------|
|-0----2--|----0----|-------2--|-0-----|
|---------|---------|----------|-------|
|---------|---------|----------|-------|
|---------|---------|----------|-------|


  Q  q  Q    Q  q  Q    E E E E E E   H.
|----5--5--|----5--5--|-7-5-7-5-----|-------|
|----------|----------|---------8-5-|-------|
|-7--------|-7--------|-------------|-7-----|
|----------|----------|-------------|-------|
|----------|----------|-------------|-------|
|----------|----------|-------------|-------|


  Q  q  Q    Q  q  Q    E E E E E E   H.
|----5--5--|----5--5--|-7-5-7-5---5-|-7-----|
|----------|----------|---------8---|-------|
|-7--------|-7--------|-------------|-------|
|----------|----------|-------------|-------|
|----------|----------|-------------|-------|
|----------|----------|-------------|-------|


  Q  q  Q    Q  q  Q    E E E E E E   H.
|----5--5--|----5--5--|-7-5-7-5-----|-------|
|----------|----------|---------8-5-|-------|
|-7--------|-7--------|-------------|-7-----|
|----------|----------|-------------|-------|
|----------|----------|-------------|-------|
|----------|----------|-------------|-------|


  Q  q  Q    Q  Q  Q    H.        q  H
|----5--5--|----8--5--|---------|---------*|
|----------|----------|-8-------|-8-------*|
|-7--------|-7--------|---------|---------*|
|----------|----------|---------|---------*|
|----------|----------|---------|---------*|
|----------|----------|---------|---------*|

H - half
Q - quarter
E - 8th
. - note dotted

Uncapitalized letters represent notes that are staccato (1/2 duration)
Login or Register to remove this ad.