Ads

Kangae no Hate wa Yume no Naka (Hanasaku Iroha) Guitar Tab

Submitted: Sep 07, 2014 by scarecrowlol

5
Average: 5 (2 votes)
Download | Listen
Game: Hanasaku Iroha
Composer(s): Shiro Hamaguchi
Style: Arrangement, Fingerstyle, Pinch harmonics, Tapping

AutoScroll: Slow | Medium | Fast
Title: Kangae no Hate wa Yume no Naka
SubTitle: Hanasaku Iroha
Artist: Shiro Hamaguchi
Tabber: Mitch Jackson
Tempo = 70
T/S = 4/4 AND 3/4



    ♪♫•*¨*•.¸¸ CAPO 3 ¸¸.•*¨*•♫♪ 

   4/4                          3/4                    4/4                          3/4

     E  E  E  E  E  Q.            H.                     E  E  E  E  E  Q.            H.                   
E |-----3----------------------|----------------------|-----3----------------------|----------------------|
B |--3-----1-------------------|----------------------|--3-----1-------------------|----------------------|
G |-----------4--0--2----------|--L-------------------|-----------4--0--2----------|--L-------------------|
D |-----2--------0-------------|----------------------|-----2--------0-------------|----------------------|
A |--0-------------------------|----------------------|--0-------------------------|----------------------|
E |----------------------------|----------------------|----------------------------|----------------------|

   4/4                          3/4                    4/4                          3/4
                 T          
     E  E  E  E  E  Q.            H.                     E  E  E  E  E  Q.            H.                   
  |-----4--2-----9p-0----------|--L-------------------|-----4--2-----9p-0----------|--L-------------------|
  |--2--------0----------------|----------------------|--2--------0----------------|----------------------|
  |----------------------------|----------------------|----------------------------|----------------------|
  |-----0----------------------|----------------------|--0-------------------------|----------------------|
  |----------------------------|----------------------|----------------------------|----------------------|
  |--2-------------------------|----------------------|----------------------------|----------------------|

                          4/4                          3/4
                           
     E  E  E  E  E  E       E  E  H.                     E  E  E  E  E  E       E  E  Q     Q        
  |--------1-----3s-4----|--2----(2)------------------|--------1-----3s-4----|--7-------------------|
  |-----------1----------|--------3-------------------|-----------1----------|--------7-------------|
  |----------------------|-----2----------------------|----------------------|--------7-----7-------|
  |--------3-------------|--0-------------------------|--------3-------------|----------------------|
  |-----3----------------|----------------------------|-----3----------------|-----9--------9-------|
  |--1-------------------|----------------------------|--1-------------------|--7-------------------|

   4/4                                                                                    3/4

     Q     H.                     Q     H.                     E  E  E  E  E  Q.            H.                   
  |----------------------------|--5-----2-------------------|-----3----------------------|----------------------|
  |--2-----0-------------------|--6-----3-------------------|--3-----1-------------------|----------------------|
  |----------------------------|--5-----2-------------------|-----------4--0--2----------|--L-------------------|
  |--2-----0-------------------|--3-----0-------------------|-----2--------0-------------|----------------------|
  |--0-------------------------|----------------------------|--0-------------------------|----------------------|
  |--------3-------------------|----------------------------|----------------------------|----------------------|

   4/4                          3/4                                           4/4
                 
     E  E  E  E  E  Q.            H           E  E       E  E  E  E  E  E       E  E  E  E  E  E  E  E     
  |-----3--5-----2-------------|--------------5-------|-----5--0--------5----|--2--------5--0--------5----|
  |--3-----1-----3-------------|----------------------|--3-----------3-------|--3-----3-----------3-------|
  |-----------4--0--2----------|--L--------------2----|-----------2----------|--2--2-----------2----------|
  |-----2----------------------|----------------------|----------------------|----------------------------|
  |--0-------------------------|----------------------|----------------------|----------------------------|
  |----------------------------|----------------------|----------------------|----------------------------|

                                                                                          3/4
                                                                                    FERM
     E  E  E  E  E  E  E  E       E  E  E  E  E  E  E  E       E  E  E  E  E  E  E  E       Q     Q     Q        
  |--0--------5--0--------5----|--0--------5--0--------5----|-----------5--0--------5----|--4-----7-----0-------|
  |--1-----3-----------3-------|--2-----3-----------3-------|--3-----3-----------3-------|--0-----7-----2-------|
  |--0--2-----------2----------|--2--2-----------2----------|--0--2-----------2----------|--1-----6-----2-------|
  |----------------------------|--2-------------------------|--0-------------------------|--2-----0-------------|
  |----------------------------|----------------------------|----------------------------|--4-------------------|
  |----------------------------|----------------------------|----------------------------|--------------2-------|
   
                                                                         4/4
              ^ T   T                          
     Q..      S T T E.       H.                     Q     Q     Q          H           E  Q.          
  |--4--------1-9p1-11----|--L-------------------|--4-----7-----0-------|--4----------<1>------------|
  |--2--------2-----------|----------------------|--0-----7-----2-------|--2-------------<4>---------|
  |-----------5-----------|----------------------|--1-----6-----2-------|----------------------------|
  |-----------------------|----------------------|--2-----0-------------|----------------------------|
  |--1--------------------|----------------------|--4-------------------|--1-------------------------|
  |-----------------------|----------------------|--------------2-------|----------------------------|


     W
  |----------------------------||
  |--L-------------------------||
  |----------------------------||
  |----------------------------||
  |----------------------------||
  |----------------------------||

Login or Register to remove this ad.