Ads

Halo Theme (Mjolnir Mix) (Halo 2) Guitar Tab

Submitted: Mar 13, 2011 by ryankozicki (Last updated: Mar 14, 2011)

0
Download | Listen
Game: Halo 2
Composer(s): Michael Salvatori, Martin ODonnel
Style: 2 or more instruments, Transcription
Series: Halo

AutoScroll: Slow | Medium | Fast
Halo Theme (Mjolnir Mix)
Halo 2
Tabbed by Ryan Kozicki on ultimate guitar
Style: 2 Guitars: Rhythm(gtr II) & Lead(gtr I)

gtr I (play this part with neck pickup on)
e|------------------------------------------------------------------|
B|------------------------------------------------------------------|
G|--1/9~----9h11/12/14--11h12\9h11\7h(9) (sustain)(Whammy dive)-----|
D|------------------------------------------------------------------|
A|------------------------------------------------------------------|
E|------------------------------------------------------------------|

gtr II      Main Riff
e|---------|--------------------------------------------------------|
B|---intro-|--------------------------------------------------------|
G|---------|--------------------------------------------------------|X2
D|---------|-------9------11-------12------14-----14\12\11----------|
A|---------|-------7-------9-------10------12-----12\10\9-----------|
E|----10\3-|-0-0-0---0-0-0---0-0-0---0-0-0--------------------------|
                   ^       ^       ^        ^      ^

gtr I
e|--12----14----15----17---------------------------------------------------|
B|--15b~--17b~--18b~--20b~--22-20-19-17-15-17--17p15\12-------------15-17~-|
G|------------------------------------------------------b14-14p12----------|
D|----------------------------------------------------------------14-------|
A|-------------------------------------------------------------------------|
E|-------------------------------------------------------------------------|


e|-----------------------------------------------9------------------|
B|--12---12-14-15---12-15-14-12\10----10---10--12---12-10-----------|
G|---------------------------------9-----9----------------9---------|
D-------------------------------------------------------------------|
A|------------------------------------------------------------------|
E|------------------------------------------------------------------|

Riff 2
e|--------------------12-----------------12-------------------------|
B|--12---12-14-b15~-------15-14-15-14-12-----15-14-15-14-12---------|
G|------------------------------------------------------------------|
D-------------------------------------------------------------------|
A|------------------------------------------------------------------|
E|------------------------------------------------------------------|


e|--14------17--17-17-17--14------17---12-14-15/17-17~--------------|
B|----15--------------------15--------------------------------------|
G|------16--------------------16------------------------------------|
D-------------------------------------------------------------------|
A|------------------------------------------------------------------|
E|------------------------------------------------------------------|


e|------------------------------------------------------------------|
B|--15--17--19--17-19-20-19-17-19-17-15--14--15--17--24~------------|
G|------------------------------------------------------------------|
D|------------------------------------------------------------------|
A|------------------------------------------------------------------|
E|------------------------------------------------------------------|


e|--21-19-17-15---15-14-15-17-15------------------------------------|
B|------------------------------------------------------------------|
G|------------------------------------------------------------------|
D|------------------------------------------------------------------|
A|------------------------------------------------------------------|
E|------------------------------------------------------------------|


e|----15---15---15---15---15---15---15---15---15-17-18-20-17--------|
B|--18--------18-------18-------18----------------------------------|
G|------17--------17--------17--------17----18----------------------|
D|------------------------------------------------------------------|
A|------------------------------------------------------------------|
E|------------------------------------------------------------------|


e|----17---17---17---17---17---17---17---17---17-15-14-15-14--------|
B|--20--------20-------20---------20--------------------------17----|
G|------19--------19--------19--------19----19----------------------|
D|------------------------------------------------------------------|
A|------------------------------------------------------------------|
E|------------------------------------------------------------------|

gtr II
e|------------------------------------------------------------------|
B|------------------------------------------------------------------|
G|------------------------------------------------------------------|X2
D|--------9*-9*-------12*-12*-------14*-14*--------12\11\9----------|
A|--------7*-7*-------10*-10*-------12*-12*--------10\9 \7----------|
E|--0-0-0-------0-0-0---------0-0-0---------0-0-0-------------------|
          ^  ^         ^   ^         ^   ^          ^

e|------------------------------------------------------------------|
B|------------------------------------------------------------------|
G|------------------------------------------------------------------|
D|--------9------11-------12------14-----14\12\11-------------------|
A|--------7-------9-------10------12-----12\10\9--------------------|
E|--0-0-0---0-0-0---0-0-0---0-0-0------0----------------------------|
          ^       ^        ^       ^      ^
gtr I
e|----15---15---15---15---15---15---15---15---15-17-18-20-17--------|
B|--18--------18-------18-------18----------------------------------|
G|------17--------17--------17--------17----18----------------------|
D|------------------------------------------------------------------|
A|------------------------------------------------------------------|
E|------------------------------------------------------------------|


e|----17---17---17---17---17---17---17---17---17-15-14-15-14--------|
B|--20--------20-------20---------20--------------------------17----|
G|------19--------19--------19--------19----19----------------------|
D|------------------------------------------------------------------|
A|------------------------------------------------------------------|
E|------------------------------------------------------------------|


e|------------------------------------------------------------------|
B|------------------------------------------------------------------|
G|--b14|-b14|-b14|-b14|-14p12---------------------------------------|
D|---------------------------14~-16~-17~-19~---19-17-16-17-16-14-14-|
A|------------------------------------------------------------------|
E|------------------------------------------------------------------|


e|------------------------------------------------------------------|
B|--17~--17-17-17-19~-19b-19-17\15-15b--17p15----17~----------------|
G|--------------------------------------------16--------------------|
D|------------------------------------------------------------------|
A|------------------------------------------------------------------|
E|------------------------------------------------------------------|


Riff 2
e|-----------------------------------------------9------------------|
B|--12---12-14-15---12-15-14-12\10----10---10--12---12-10-----------|
G|---------------------------------9-----9----------------9---------|
D-------------------------------------------------------------------|
A|------------------------------------------------------------------|
E|------------------------------------------------------------------|


e|--------------------12-----------------12-------------------------|
B|--12---12-14-b15~-------15-14-15-14-12-----15-14-15-14-12---------|
G|------------------------------------------------------------------|
D-------------------------------------------------------------------|
A|------------------------------------------------------------------|
E|------------------------------------------------------------------|


e|--14------17--17-17-17--14------17---12-14-15/17-17~--------------|
B|----15--------------------15--------------------------------------|
G|------16--------------------16------------------------------------|
D-------------------------------------------------------------------|
A|------------------------------------------------------------------|
E|------------------------------------------------------------------|


e|------------------------------------------------------------------|
B|--15--17--19--17-19-20-19-17-19-17-15--14--15--17--24~------------|
G|------------------------------------------------------------------|
D|------------------------------------------------------------------|
A|------------------------------------------------------------------|
E|------------------------------------------------------------------|


e|--21-19-17-15--15-14-15-17-15-----------------------------------------|
B|-------------------------------b22-22~~-------------------------------|
G|--------------------------------------------------b14-b14-b14-b14-14~-|
D|--------------------------------------------7-7h9~--------------------|
A|--------------------------------------5-5h7---------------------------|
E|----------------------------------------------------------------------|


e|------------------------------------------------------------------|
B|--b15-15p12---b18-18p15---b20-20p17-----b20-20-19-----------------|
G|------------------------------------------------------------------|
D|-----------14----------17----------19-----------------------------|
A|------------------------------------------------------------------|
E|------------------------------------------------------------------|


e|------------------------------------------------------------------|
B|---15------------------------15-----------------------------------|
G|--b14--------14p12--12------b14-----14p12-------------------------|
D|------------------14--14~---------------14-12-14~-----------------|
A|------------------------------------------------------------------|
E|------------------------------------------------------------------|


e|-------------------------------------------------------------------------|
B|-/17~-17-19h20-19-17-17h19-15-12-----------------------------------------|
G|--------------------------------b14-b14-14p12---12b14--14p13hb14-14p12---|
D|----------------------------------------------14---------------------14~-|
A|-------------------------------------------------------------------------|
E|-------------------------------------------------------------------------|


e|------------------------------------------------------------------|
B|--15h17-17-17bbb~--b17\17p15----17p15---15h17---------------------|
G|-----------------------------16-------16--------------------------|
D|------------------------------------------------------------------|
A|------------------------------------------------------------------|
E|------------------------------------------------------------------|

e|-------------------------------------------------------------------------|
B|-----------15---------15-------------------------------------------------|
G|------14h16------14h16--14h16p14h16p14h16--------------------------------|
D|-14h17------14h17-------------------------14h17p14h17p14h17--------------|
A|-------------------------------------------------------------14~~sustain-|
E|-------------------------------------------------------------------------|

e|-------------------------------------------------------------------------|
B|-------------------------------------------------------------------------|
G|-------------------------------------------------------------------------|
D|-------------------------------------------------------------------------|
A|-------------------------------------------------------------------------|
E|--7/10/12/15/17-14~--12/15\14-12-14\10~(Bend up whammy with sustain)\\\\-|

key:
^: upstroke
*: pause/mute (not palm mute)

Note: all open notes are palm muted
Login or Register to remove this ad.

1 comment on Halo Theme (Mjolnir Mix)

I think that in the

I think that in the beginning, you should put A|-7~--(Whammy Dive)--| before the other thing.