1st Movement of The Odyssey (Halo 2) Bass/Guitar Tab

Submitted: Oct 08, 2015 by Jacob31593

5
Average: 5 (2 votes)
Download | Listen
Game: Halo 2
Composer(s): Michael Salvatori, Martin ODonnel
Style: 2 or more instruments, Transcription
Series: Halo

This song is also called Follow

AutoScroll: Slow | Medium | Fast

1st Movement of The Odyssey
Composed by Incubus
Tabbed by Jacob31593
October 8th 2015

121 BPM

Vocal 1
E||-------|-------|-------|-------|-------|-------|-------|-------|-------|-------|-------|-------|-------|
B||-------|-------|-------|-------|-------|-------|-------|-------|-------|-------|-------|-------|-------|
G||-------|-------|-------|-------|-------|-------|-------|-------|-------|-------|-------|-------|-------|
D||-------|-------|-------|-------|-------|-------|-------|-------|-------|-------|-------|-------|-------|
A||-------|-------|-------|-------|-------|-------|-------|-------|-------|-------|-------|-------|-------|
E||-------|-------|-------|-------|-------|-------|-------|-------|-------|-------|-------|-------|-------|


                            E  E  H.              W                   E  E  H.            
-------|-------|-------||----------------------|-------------------|---------------------|
-------|-------|-------||---1--3--5------------|-------------------|--1--3--5------------|
-------|-------|-------||*--2--4--5------------|--5----------------|--2--4--5------------|
-------|-------|-------||*---------------------|--3----------------|---------------------|
-------|-------|-------||----------------------|-------------------|---------------------|
-------|-------|-------||----------------------|-------------------|---------------------|


  H        H           E  E  H.              W                   E  E  H.              H        H         
--------------------|---------------------|-------------------|---------------------|--------------------|
--5--------L--------|--1--3--5------------|-------------------|--1--3--5------------|--5--------L--------|
--4--------4--------|--2--4--5------------|--5----------------|--2--4--5------------|--4--------4--------|
-----------6--------|---------------------|--3----------------|---------------------|-----------6--------|
--------------------|---------------------|-------------------|---------------------|--------------------|
--------------------|---------------------|-------------------|---------------------|--------------------|


  E  E  H.              W                   E  E  H.              H        H           E  E  H.            
---------------------|-------------------|---------------------|--------------------|---------------------|
--1--3--5------------|-------------------|--1--3--5------------|--5--------L--------|--1--3--5------------|
--2--4--5------------|--5----------------|--2--4--5------------|--4--------4--------|--2--4--5------------|
---------------------|--3----------------|---------------------|-----------6--------|---------------------|
---------------------|-------------------|---------------------|--------------------|---------------------|
---------------------|-------------------|---------------------|--------------------|---------------------|


  W                   E  E  H.              H        H                   Q    E  Q     Q      
-------------------|---------------------|--------------------|-------|----------7b----------|
-------------------|--1--3--5------------|--5--------L--------|-------|----------------5~----|
--5----------------|--2--4--5------------|--4--------4--------|-------|----------------------|
--3----------------|---------------------|-----------6--------|-------|----------------------|
-------------------|---------------------|--------------------|-------|----------------------|
-------------------|---------------------|--------------------|-------|----------------------|


  Q    E  Q     Q        Q    E  Q     Q        Q    Q    Q    Q       Q    E  Q     Q      
----------7b----------|----------7b----------|----------------------|----------7b----------|
--L-------------5~----|--L-------------5~----|--L-------------------|----------------5~----|
----------------------|----------------------|----------------------|----------------------|
----------------------|----------------------|----------------------|----------------------|
----------------------|----------------------|----------------------|----------------------|
----------------------|----------------------|----------------------|----------------------|


  Q    E  Q     E  E     H         Q.          Q.      S S Q.      E      Q    E  Q     Q      
----------7b----------|--5~--------L------|--4g5~------4-5-4~------L\--|----------7b----------|
--L-------------5-----|-------------------|----------------------------|----------------5~----|
-------------------7--|-------------------|----------------------------|----------------------|
----------------------|-------------------|----------------------------|----------------------|
----------------------|-------------------|----------------------------|----------------------|
----------------------|-------------------|----------------------------|----------------------|


  Q    E  Q     Q        Q    E  Q     Q        Q    Q    Q    Q       Q    E  Q     Q      
----------7b----------|----------7b----------|----------------------|----------7b----------|
--L-------------5~----|--L-------------5~----|--L-------------------|----------------5~----|
----------------------|----------------------|----------------------|----------------------|
----------------------|----------------------|----------------------|----------------------|
----------------------|----------------------|----------------------|----------------------|
----------------------|----------------------|----------------------|----------------------|


  Q    E  Q     E  E     H         Q.          Q.     S S Q.      E      W                 E   
----------7b----------|--5~--------L------|--4g5------4-5-4~------L\--|--8~----------------L--|
--L-------------5-----|-------------------|---------------------------|-----------------------|
-------------------7--|-------------------|---------------------------|-----------------------|
----------------------|-------------------|---------------------------|-----------------------|
----------------------|-------------------|---------------------------|-----------------------|
----------------------|-------------------|---------------------------|-----------------------|


  W                 Q.        W                 E     W                 Q.        W                 E   
--5~----------------L------|--8~----------------L--|--5~----------------L------|--8~----------------L--|
---------------------------|-----------------------|---------------------------|-----------------------|
---------------------------|-----------------------|---------------------------|-----------------------|
---------------------------|-----------------------|---------------------------|-----------------------|
---------------------------|-----------------------|---------------------------|-----------------------|
---------------------------|-----------------------|---------------------------|-----------------------|


          W                 E             
-------|--8~----------------L--|--------||
-------|-----------------------|--------||
-------|-----------------------|-------*||
-------|-----------------------|-------*||
-------|-----------------------|--------||
-------|-----------------------|--------||

Vocal 2
E||-------|-------|-------|-------|-------|-------|-------|-------|-------|-------|-------|-------|-------|
B||-------|-------|-------|-------|-------|-------|-------|-------|-------|-------|-------|-------|-------|
G||-------|-------|-------|-------|-------|-------|-------|-------|-------|-------|-------|-------|-------|
D||-------|-------|-------|-------|-------|-------|-------|-------|-------|-------|-------|-------|-------|
A||-------|-------|-------|-------|-------|-------|-------|-------|-------|-------|-------|-------|-------|
E||-------|-------|-------|-------|-------|-------|-------|-------|-------|-------|-------|-------|-------|


                             W                    W                    W                 
-------|-------|-------||---------------------|--------------------|--------------------|
-------|-------|-------||---------------------|--------------------|--------------------|
-------|-------|-------||*--------------------|--------------------|--------------------|
-------|-------|-------||*--19----------------|--18----------------|--19----------------|
-------|-------|-------||---------------------|--------------------|--------------------|
-------|-------|-------||---------------------|--------------------|--------------------|


   H         H            W                    W                    W                    H         H         
----------------------|--------------------|--------------------|--------------------|----------------------|
----------------------|--------------------|--------------------|--------------------|----------------------|
----------------------|--------------------|--------------------|--------------------|----------------------|
--19--------18--------|--19----------------|--18----------------|--19----------------|--19--------18--------|
----------------------|--------------------|--------------------|--------------------|----------------------|
----------------------|--------------------|--------------------|--------------------|----------------------|


   W                    W                    W                    H         H            W                 
--------------------|--------------------|--------------------|----------------------|--------------------|
--------------------|--------------------|--------------------|----------------------|--------------------|
--------------------|--------------------|--------------------|----------------------|--------------------|
--19----------------|--18----------------|--19----------------|--19--------18--------|--19----------------|
--------------------|--------------------|--------------------|----------------------|--------------------|
--------------------|--------------------|--------------------|----------------------|--------------------|


   W                    W                    H         H                   Q    E  Q     Q      
--------------------|--------------------|----------------------|-------|----------------------|
--------------------|--------------------|----------------------|-------|----------5b----------|
--------------------|--------------------|----------------------|-------|----------------5~----|
--18----------------|--19----------------|--19--------18--------|-------|----------------------|
--------------------|--------------------|----------------------|-------|----------------------|
--------------------|--------------------|----------------------|-------|----------------------|


  Q    E  Q     Q        Q    E  Q     Q        Q    Q    Q    Q       Q    E  Q     Q      
----------------------|----------------------|----------------------|----------------------|
----------5b----------|----------5b----------|----------------------|----------5b----------|
--L-------------5~----|--L-------------5~----|--L-------------------|----------------5~----|
----------------------|----------------------|----------------------|----------------------|
----------------------|----------------------|----------------------|----------------------|
----------------------|----------------------|----------------------|----------------------|


  Q    E  Q     E  E     H         Q.          Q.      S S Q.      E      Q    E  Q     Q      
----------------------|-------------------|----------------------------|----------------------|
----------5b----------|--6~--------L------|--5g6~------5-6-5~------L\--|----------5b----------|
--L-------------5--5--|-------------------|----------------------------|----------------5~----|
----------------------|-------------------|----------------------------|----------------------|
----------------------|-------------------|----------------------------|----------------------|
----------------------|-------------------|----------------------------|----------------------|


  Q    E  Q     Q        Q    E  Q     Q        Q    Q    Q    Q       Q    E  Q     Q      
----------------------|----------------------|----------------------|----------------------|
----------5b----------|----------5b----------|----------------------|----------5b----------|
--L-------------5~----|--L-------------5~----|--L-------------------|----------------5~----|
----------------------|----------------------|----------------------|----------------------|
----------------------|----------------------|----------------------|----------------------|
----------------------|----------------------|----------------------|----------------------|


  Q    E  Q     E  E     H         Q.          Q.      S S Q.      E                                    
----------------------|-------------------|----------------------------|-------|-------|-------|-------|
----------5b----------|--6~--------L------|--5g6~------5-6-5~------L\--|-------|-------|-------|-------|
--L-------------5--5--|-------------------|----------------------------|-------|-------|-------|-------|
----------------------|-------------------|----------------------------|-------|-------|-------|-------|
----------------------|-------------------|----------------------------|-------|-------|-------|-------|
----------------------|-------------------|----------------------------|-------|-------|-------|-------|


  W                E     W                Q.        W                E     H        H        Q.        
--5----------------L--|--5----------------L------|--5----------------L--|--5--------4--------L-------||
--5----------------L--|--5----------------L------|--5----------------L--|--5--------5--------L-------||
----------------------|--------------------------|----------------------|---------------------------*||
----------------------|--------------------------|----------------------|---------------------------*||
----------------------|--------------------------|----------------------|----------------------------||
----------------------|--------------------------|----------------------|----------------------------||

Left Clean
E||-------|-------|-------|-------|-------|-------|-------|-------|-------|-------|-------|-------|-------|
B||-------|-------|-------|-------|-------|-------|-------|-------|-------|-------|-------|-------|-------|
G||-------|-------|-------|-------|-------|-------|-------|-------|-------|-------|-------|-------|-------|
D||-------|-------|-------|-------|-------|-------|-------|-------|-------|-------|-------|-------|-------|
A||-------|-------|-------|-------|-------|-------|-------|-------|-------|-------|-------|-------|-------|
E||-------|-------|-------|-------|-------|-------|-------|-------|-------|-------|-------|-------|-------|


                            E  E  S S S E  S S S S S S S    E  E  S S S E  S S S S S S S  
-------|-------|-------||--------------------------------|-------------------------------|
-------|-------|-------||---5--5--5-5-5-5--5-5-5-5-5-5-5-|--6--6--6-6-6-6--6-6-6-6-6-6-5-|
-------|-------|-------||*--5--5--5-5-5-5--5-5-5-5-5-5-5-|--5--5--5-5-5-5--5-5-5-5-5-5-5-|
-------|-------|-------||*--2--2--2-2-2-2--2-2-2-2-2-2-2-|--3--3--3-3-3-3--3-3-3-3-3-3-2-|
-------|-------|-------||--------------------------------|-------------------------------|
-------|-------|-------||--------------------------------|-------------------------------|


  E  E  S S S E  S S S S S S S    E  E  S S S S S S S S S S S S    E  E  S S S E  S S S S S S S  
-------------------------------|--------------------------------|-------------------------------|
--5--5--5-5-5-5--5-5-5-5-5-5-5-|----------------5-5-5-5-5-5-5-5-|--5--5--5-5-5-5--5-5-5-5-5-5-5-|
--5--5--5-5-5-5--5-5-5-5-5-5-4-|--4--4--4-4-4-4-4-4-4-4-4-4-4-4-|--5--5--5-5-5-5--5-5-5-5-5-5-5-|
--2--2--2-2-2-2--2-2-2-2-2-2-2-|--2--2--2-2-2-2-2-2-2-2-2-2-2-2-|--2--2--2-2-2-2--2-2-2-2-2-2-2-|
-------------------------------|--------------------------------|-------------------------------|
-------------------------------|--------------------------------|-------------------------------|


  E  E  S S S E  S S S S S S S    E  E  S S S E  S S S S S S S    E  E  S S S S S S S S S S S S  
-------------------------------|-------------------------------|--------------------------------|
--6--6--6-6-6-6--6-6-6-6-6-6-5-|--5--5--5-5-5-5--5-5-5-5-5-5-5-|----------------5-5-5-5-5-5-5-5-|
--5--5--5-5-5-5--5-5-5-5-5-5-5-|--5--5--5-5-5-5--5-5-5-5-5-5-4-|--4--4--4-4-4-4-4-4-4-4-4-4-4-4-|
--3--3--3-3-3-3--3-3-3-3-3-3-2-|--2--2--2-2-2-2--2-2-2-2-2-2-2-|--2--2--2-2-2-2-2-2-2-2-2-2-2-2-|
-------------------------------|-------------------------------|--------------------------------|
-------------------------------|-------------------------------|--------------------------------|


  E  E  S S S E  S S S S S S S    E  E  S S S E  S S S S S S S    E  E  S S S E  S S S S S S S  
-------------------------------|-------------------------------|-------------------------------|
--5--5--5-5-5-5--5-5-5-5-5-5-5-|--6--6--6-6-6-6--6-6-6-6-6-6-5-|--5--5--5-5-5-5--5-5-5-5-5-5-5-|
--5--5--5-5-5-5--5-5-5-5-5-5-5-|--5--5--5-5-5-5--5-5-5-5-5-5-5-|--5--5--5-5-5-5--5-5-5-5-5-5-4-|
--2--2--2-2-2-2--2-2-2-2-2-2-2-|--3--3--3-3-3-3--3-3-3-3-3-3-2-|--2--2--2-2-2-2--2-2-2-2-2-2-2-|
-------------------------------|-------------------------------|-------------------------------|
-------------------------------|-------------------------------|-------------------------------|


  E  E  S S S S S S S S S S S S    E  E  S S S E  S S S S S S S    E  E  S S S E  S S S S S S S  
--------------------------------|-------------------------------|-------------------------------|
----------------5-5-5-5-5-5-5-5-|--5--5--5-5-5-5--5-5-5-5-5-5-5-|--6--6--6-6-6-6--6-6-6-6-6-6-5-|
--4--4--4-4-4-4-4-4-4-4-4-4-4-4-|--5--5--5-5-5-5--5-5-5-5-5-5-5-|--5--5--5-5-5-5--5-5-5-5-5-5-5-|
--2--2--2-2-2-2-2-2-2-2-2-2-2-2-|--2--2--2-2-2-2--2-2-2-2-2-2-2-|--3--3--3-3-3-3--3-3-3-3-3-3-2-|
--------------------------------|-------------------------------|-------------------------------|
--------------------------------|-------------------------------|-------------------------------|


  E  E  S S S E  S S S S S S S    E  E  S S S S S S S S S S S S                                               
-------------------------------|--------------------------------|----|----|----|----|----|----|----|----|----|
--5--5--5-5-5-5--5-5-5-5-5-5-5-|----------------5-5-5-5-5-5-5-5-|----|----|----|----|----|----|----|----|----|
--5--5--5-5-5-5--5-5-5-5-5-5-4-|--4--4--4-4-4-4-4-4-4-4-4-4-4-4-|----|----|----|----|----|----|----|----|----|
--2--2--2-2-2-2--2-2-2-2-2-2-2-|--2--2--2-2-2-2-2-2-2-2-2-2-2-2-|----|----|----|----|----|----|----|----|----|
-------------------------------|--------------------------------|----|----|----|----|----|----|----|----|----|
-------------------------------|--------------------------------|----|----|----|----|----|----|----|----|----|


----|----|----|----|----|----|----|----|-------|-------|-------|-------|-------|-------|-------|--------||
----|----|----|----|----|----|----|----|-------|-------|-------|-------|-------|-------|-------|--------||
----|----|----|----|----|----|----|----|-------|-------|-------|-------|-------|-------|-------|-------*||
----|----|----|----|----|----|----|----|-------|-------|-------|-------|-------|-------|-------|-------*||
----|----|----|----|----|----|----|----|-------|-------|-------|-------|-------|-------|-------|--------||
----|----|----|----|----|----|----|----|-------|-------|-------|-------|-------|-------|-------|--------||


Right Clean
E||-------|-------|-------|-------|-------|-------|-------|-------|-------|-------|-------|-------|-------|
B||-------|-------|-------|-------|-------|-------|-------|-------|-------|-------|-------|-------|-------|
G||-------|-------|-------|-------|-------|-------|-------|-------|-------|-------|-------|-------|-------|
D||-------|-------|-------|-------|-------|-------|-------|-------|-------|-------|-------|-------|-------|
A||-------|-------|-------|-------|-------|-------|-------|-------|-------|-------|-------|-------|-------|
E||-------|-------|-------|-------|-------|-------|-------|-------|-------|-------|-------|-------|-------|


-------|-------|-------||--------|-------|-------|-------|-------|-------|-------|-------|
-------|-------|-------||--------|-------|-------|-------|-------|-------|-------|-------|
-------|-------|-------||*-------|-------|-------|-------|-------|-------|-------|-------|
-------|-------|-------||*-------|-------|-------|-------|-------|-------|-------|-------|
-------|-------|-------||--------|-------|-------|-------|-------|-------|-------|-------|
-------|-------|-------||--------|-------|-------|-------|-------|-------|-------|-------|


  E  E  S S S E  S S S S S S S    E  E  S S S E  S S S S S S S    E  E  S S S E  S S S S S S S  
-------------------------------|-------------------------------|-------------------------------|
--5--5--5-5-5-5--5-5-5-5-5-5-5-|--6--6--6-6-6-6--6-6-6-6-6-6-5-|--5--5--5-5-5-5--5-5-5-5-5-5-5-|
--5--5--5-5-5-5--5-5-5-5-5-5-5-|--5--5--5-5-5-5--5-5-5-5-5-5-5-|--5--5--5-5-5-5--5-5-5-5-5-5-4-|
--2--2--2-2-2-2--2-2-2-2-2-2-2-|--3--3--3-3-3-3--3-3-3-3-3-3-2-|--2--2--2-2-2-2--2-2-2-2-2-2-2-|
-------------------------------|-------------------------------|-------------------------------|
-------------------------------|-------------------------------|-------------------------------|


  E  E  S S S S S S S S S S S S    E  E  S S S E  S S S S S S S    E  E  S S S E  S S S S S S S  
--------------------------------|-------------------------------|-------------------------------|
----------------5-5-5-5-5-5-5-5-|--5--5--5-5-5-5--5-5-5-5-5-5-5-|--6--6--6-6-6-6--6-6-6-6-6-6-5-|
--4--4--4-4-4-4-4-4-4-4-4-4-4-4-|--5--5--5-5-5-5--5-5-5-5-5-5-5-|--5--5--5-5-5-5--5-5-5-5-5-5-5-|
--2--2--2-2-2-2-2-2-2-2-2-2-2-2-|--2--2--2-2-2-2--2-2-2-2-2-2-2-|--3--3--3-3-3-3--3-3-3-3-3-3-2-|
--------------------------------|-------------------------------|-------------------------------|
--------------------------------|-------------------------------|-------------------------------|


  E  E  S S S E  S S S S S S S    E  E  S S S S S S S S S S S S                                          
-------------------------------|--------------------------------|-------|-------|-------|-------|-------|
--5--5--5-5-5-5--5-5-5-5-5-5-5-|----------------5-5-5-5-5-5-5-5-|-------|-------|-------|-------|-------|
--5--5--5-5-5-5--5-5-5-5-5-5-4-|--4--4--4-4-4-4-4-4-4-4-4-4-4-4-|-------|-------|-------|-------|-------|
--2--2--2-2-2-2--2-2-2-2-2-2-2-|--2--2--2-2-2-2-2-2-2-2-2-2-2-2-|-------|-------|-------|-------|-------|
-------------------------------|--------------------------------|-------|-------|-------|-------|-------|
-------------------------------|--------------------------------|-------|-------|-------|-------|-------|


-------|-------|-------|-------|-------|-------|-------|-------|-------|-------|-------|-------|-------|
-------|-------|-------|-------|-------|-------|-------|-------|-------|-------|-------|-------|-------|
-------|-------|-------|-------|-------|-------|-------|-------|-------|-------|-------|-------|-------|
-------|-------|-------|-------|-------|-------|-------|-------|-------|-------|-------|-------|-------|
-------|-------|-------|-------|-------|-------|-------|-------|-------|-------|-------|-------|-------|
-------|-------|-------|-------|-------|-------|-------|-------|-------|-------|-------|-------|-------|


-------|-------|-------|-------|-------|-------|--------||
-------|-------|-------|-------|-------|-------|--------||
-------|-------|-------|-------|-------|-------|-------*||
-------|-------|-------|-------|-------|-------|-------*||
-------|-------|-------|-------|-------|-------|--------||
-------|-------|-------|-------|-------|-------|--------||


Violin
E||-------|-------|-------|-------|-------|-------|-------|-------|
B||-------|-------|-------|-------|-------|-------|-------|-------|
G||-------|-------|-------|-------|-------|-------|-------|-------|
D||-------|-------|-------|-------|-------|-------|-------|-------|
A||-------|-------|-------|-------|-------|-------|-------|-------|
E||-------|-------|-------|-------|-------|-------|-------|-------|


   S  S  S  S  S  S  S  S  S  E    S  S  S  S  S  S  S  
-------------------------------------------15----------|
-----------15----------18----17~--15-17-18----18-17-15-|
--14-16-17----17-16-14----14---------------------------|
-------------------------------------------------------|
-------------------------------------------------------|
-------------------------------------------------------|


   S  S  S  S  S  S  S  S  S  E    S  S  S  S  S  S  S  S  S  S  S  
-------------------------------------------16----------17-16-------|
-----------15----------18----17~--15-17-18----18-17-15-------18-17-|
--14-16-17----17-16-14----14---------------------------------------|
-------------------------------------------------------------------|
-------------------------------------------------------------------|
-------------------------------------------------------------------|


   S  S  S  S  S  S  S  S  S  E    S  S  S  S  S  S  S  
-------------------------------------------15----------|
-----------15----------18----17~--15-17-18----18-17-15-|
--14-16-17----17-16-14----14---------------------------|
-------------------------------------------------------|
-------------------------------------------------------|
-------------------------------------------------------|


   S  S  S  S  S  S  S  S  S  E    S  S  S  S  S  S  S  S  S  S  S  
-------------------------------------------16----------17-16-------|
-----------15----------18----17~--15-17-18----18-17-15-------18-17-|
--14-16-17----17-16-14----14---------------------------------------|
-------------------------------------------------------------------|
-------------------------------------------------------------------|
-------------------------------------------------------------------|


   S  S  S  S  S  S  S  S  S  E    S  S  S  S  S  S  S  
-------------------------------------------15----------|
-----------15----------18----17~--15-17-18----18-17-15-|
--14-16-17----17-16-14----14---------------------------|
-------------------------------------------------------|
-------------------------------------------------------|
-------------------------------------------------------|


   S  S  S  S  S  S  S  S  S  E    S  S  S  S  S  S  S  S  S  S  S  
-------------------------------------------16----------17-16-------|
-----------15----------18----17~--15-17-18----18-17-15-------18-17-|
--14-16-17----17-16-14----14---------------------------------------|
-------------------------------------------------------------------|
-------------------------------------------------------------------|
-------------------------------------------------------------------|


   S  S  S  S  S  S  S  S  S  E    S  S  S  S  S  S  S  
-------------------------------------------15----------|
-----------15----------18----17~--15-17-18----18-17-15-|
--14-16-17----17-16-14----14---------------------------|
-------------------------------------------------------|
-------------------------------------------------------|
-------------------------------------------------------|


   S  S  S  S  S  S  S  S  S  E    S  S  S  S  S  S  S  S  S  S  S                                            
-------------------------------------------16----------17-16-------||-----|----|----|----|----|----|----|----|
-----------15----------18----17~--15-17-18----18-17-15-------18-17-||-----|----|----|----|----|----|----|----|
--14-16-17----17-16-14----14---------------------------------------||*----|----|----|----|----|----|----|----|
-------------------------------------------------------------------||*----|----|----|----|----|----|----|----|
-------------------------------------------------------------------||-----|----|----|----|----|----|----|----|
-------------------------------------------------------------------||-----|----|----|----|----|----|----|----|


  E  E  E  E  E  E  E  E     E  E  E  E  E  E  E  E     E  E  E  E  E  E  E  E     E  E  E  E  E  E  E  E   
--------5-----------------|--------------------------|--------5-----------------|--------5-----------4-----|
-----5--------------------|--------6-----------------|-----5--------------------|-----5-----------3--------|
--5-----------------------|--5--5--------------------|--5-----------------------|--4-----------4-----------|
--------------------------|--------------------------|--------------------------|--------------------------|
--------------------------|--------------------------|--------------------------|--------------------------|
--------------------------|--------------------------|--------------------------|--------------------------|


  E  E  E  E  E  E  E  E     E  E  E  E  E  E  E  E     E  E  E  E  E  E  E  E     E  E  E  E  E  E  E  E   
--------5-----------------|--------------------------|--------5-----------------|--------5-----------4-----|
-----5--------------------|--------6-----------------|-----5--------------------|-----5-----------3--------|
--5-----------------------|--5--5--------------------|--5-----------------------|--4-----------4-----------|
--------------------------|--------------------------|--------------------------|--------------------------|
--------------------------|--------------------------|--------------------------|--------------------------|
--------------------------|--------------------------|--------------------------|--------------------------|


----|----|----|----|----|----|----|----|----|----|----|----|----|----|----|----|----|
----|----|----|----|----|----|----|----|----|----|----|----|----|----|----|----|----|
----|----|----|----|----|----|----|----|----|----|----|----|----|----|----|----|----|
----|----|----|----|----|----|----|----|----|----|----|----|----|----|----|----|----|
----|----|----|----|----|----|----|----|----|----|----|----|----|----|----|----|----|
----|----|----|----|----|----|----|----|----|----|----|----|----|----|----|----|----|


   S  S  S  S  S  S  S  S  S  E    S  S  S  S  S  S  S  
-------------------------------------------15----------|
-----------15----------18----17~--15-17-18----18-17-15-|
--14-16-17----17-16-14----14---------------------------|
-------------------------------------------------------|
-------------------------------------------------------|
-------------------------------------------------------|


   S  S  S  S  S  S  S  S  S  E    S  S  S  S  S  S  S  S  S  S  S  
-------------------------------------------16----------17-16-------|
-----------15----------18----17~--15-17-18----18-17-15-------18-17-|
--14-16-17----17-16-14----14---------------------------------------|
-------------------------------------------------------------------|
-------------------------------------------------------------------|
-------------------------------------------------------------------|


   S  S  S  S  S  S  S  S  S  E    S  S  S  S  S  S  S  
-------------------------------------------15----------|
-----------15----------18----17~--15-17-18----18-17-15-|
--14-16-17----17-16-14----14---------------------------|
-------------------------------------------------------|
-------------------------------------------------------|
-------------------------------------------------------|


   S  S  S  S  S  S  S  S  S  E    S  S  S  S  S  S  S  S  S  S  S  
-------------------------------------------16----------17-16-------|
-----------15----------18----17~--15-17-18----18-17-15-------18-17-|
--14-16-17----17-16-14----14---------------------------------------|
-------------------------------------------------------------------|
-------------------------------------------------------------------|
-------------------------------------------------------------------|


   S  S  S  S  S  S  S  S  S  E    S  S  S  S  S  S  S  
-------------------------------------------15----------|
-----------15----------18----17~--15-17-18----18-17-15-|
--14-16-17----17-16-14----14---------------------------|
-------------------------------------------------------|
-------------------------------------------------------|
-------------------------------------------------------|


   S  S  S  S  S  S  S  S  S  E    S  S  S  S  S  S  S  S  S  S  S  
-------------------------------------------16----------17-16-------|
-----------15----------18----17~--15-17-18----18-17-15-------18-17-|
--14-16-17----17-16-14----14---------------------------------------|
-------------------------------------------------------------------|
-------------------------------------------------------------------|
-------------------------------------------------------------------|


   S  S  S  S  S  S  S  S  S  E    S  S  S  S  S  S  S  
-------------------------------------------15----------|
-----------15----------18----17~--15-17-18----18-17-15-|
--14-16-17----17-16-14----14---------------------------|
-------------------------------------------------------|
-------------------------------------------------------|
-------------------------------------------------------|


   S  S  S  S  S  S  S  S  S  E    S  S  S  S  S  S  S  S  S  S  S    
-------------------------------------------16----------17-16--------||
-----------15----------18----17~--15-17-18----18-17-15-------18-17--||
--14-16-17----17-16-14----14---------------------------------------*||
-------------------------------------------------------------------*||
--------------------------------------------------------------------||
--------------------------------------------------------------------||

Right Distortion 1
                                     S S  S S  S S S  S S E   S S  S S  S S S  
E||-------|-------|-------|-------|-------------------------------------------|
B||-------|-------|-------|-------|----------------------------------8--------|
G||-------|-------|-------|-------|---------7--------10---9~--7-9-10---10-9-7-|
D||-------|-------|-------|-------|--7-9-10---10-9-7----7---------------------|
A||-------|-------|-------|-------|-------------------------------------------|
E||-------|-------|-------|-------|-------------------------------------------|


  S S  S S  S S S  S S E   S S  S S  S S S  S S  S S    S S  S S  S S S  S S E   S S  S S  S S S  
-----------------------------------------------------|-------------------------------------------|
----------------------------------9--------10-9------|----------------------------------8--------|
---------7--------10---9~--7-9-10---10-9-7------10-9-|---------7--------10---9~--7-9-10---10-9-7-|
--7-9-10---10-9-7----7-------------------------------|--7-9-10---10-9-7----7---------------------|
-----------------------------------------------------|-------------------------------------------|
-----------------------------------------------------|-------------------------------------------|


  S S  S S  S S S  S S E   S S  S S  S S S  S S  S S    S S  S S  S S S  S S E   S S  S S  S S S  
-----------------------------------------------------|-------------------------------------------|
----------------------------------9--------10-9------|----------------------------------8--------|
---------7--------10---9~--7-9-10---10-9-7------10-9-|---------7--------10---9~--7-9-10---10-9-7-|
--7-9-10---10-9-7----7-------------------------------|--7-9-10---10-9-7----7---------------------|
-----------------------------------------------------|-------------------------------------------|
-----------------------------------------------------|-------------------------------------------|


  S S  S S  S S S  S S E   S S  S S  S S S  S S  S S    S S  S S  S S S  S S E   S S  S S  S S S  
-----------------------------------------------------|-------------------------------------------|
----------------------------------9--------10-9------|----------------------------------8--------|
---------7--------10---9~--7-9-10---10-9-7------10-9-|---------7--------10---9~--7-9-10---10-9-7-|
--7-9-10---10-9-7----7-------------------------------|--7-9-10---10-9-7----7---------------------|
-----------------------------------------------------|-------------------------------------------|
-----------------------------------------------------|-------------------------------------------|


  S S  S S  S S S  S S E   S S  S S  S S S  S S  S S    S S  S S  S S S  S S E   S S  S S  S S S  
-----------------------------------------------------|-------------------------------------------|
----------------------------------9--------10-9------|----------------------------------8--------|
---------7--------10---9~--7-9-10---10-9-7------10-9-|---------7--------10---9~--7-9-10---10-9-7-|
--7-9-10---10-9-7----7-------------------------------|--7-9-10---10-9-7----7---------------------|
-----------------------------------------------------|-------------------------------------------|
-----------------------------------------------------|-------------------------------------------|


  S S  S S  S S S  S S E   S S  S S  S S S  S S  S S    S S  S S  S S S  S S E   S S  S S  S S S  
-----------------------------------------------------|-------------------------------------------|
----------------------------------9--------10-9------|----------------------------------8--------|
---------7--------10---9~--7-9-10---10-9-7------10-9-|---------7--------10---9~--7-9-10---10-9-7-|
--7-9-10---10-9-7----7-------------------------------|--7-9-10---10-9-7----7---------------------|
-----------------------------------------------------|-------------------------------------------|
-----------------------------------------------------|-------------------------------------------|


  S S  S S  S S S  S S E   S S  S S  S S S  S S  S S                                                      
-----------------------------------------------------||-----|----|----|----|----|----|----|----|----|----|
----------------------------------9--------10-9------||-----|----|----|----|----|----|----|----|----|----|
---------7--------10---9~--7-9-10---10-9-7------10-9-||*----|----|----|----|----|----|----|----|----|----|
--7-9-10---10-9-7----7-------------------------------||*----|----|----|----|----|----|----|----|----|----|
-----------------------------------------------------||-----|----|----|----|----|----|----|----|----|----|
-----------------------------------------------------||-----|----|----|----|----|----|----|----|----|----|


                                     E  E  S E  E  S S S S S    E  E  S E  E  S S S S S  
----|----|----|----|----|----|----|--------------------------|--------------------------|
----|----|----|----|----|----|----|--------------------------|--------------------------|
----|----|----|----|----|----|----|--------------------------|--------------------------|
----|----|----|----|----|----|----|--------------------------|--------------------------|
----|----|----|----|----|----|----|--------------------------|--------------------------|
----|----|----|----|----|----|----|--5--5--5-5--5--5-5-5-5-5-|--8--8--8-8--8--8-8-8-8-8-|


  E  E  S E  E  S S S S S    E  E  S S S S S S S S S S S S    E  E  S E  E  S S S S S  
--------------------------|--------------------------------|--------------------------|
--------------------------|--------------------------------|--------------------------|
--------------------------|--------------------------------|--------------------------|
--------------------------|--------------------------------|--------------------------|
--------------------------|--------------------------------|--------------------------|
--5--5--5-5--5--5-5-5-5-5-|--1--1--1-1-1-1-0-0-0-0-0-0-0-0-|--5--5--5-5--5--5-5-5-5-5-|


  E  E  S E  E  S S S S S    E  E  S E  E  S S S S S    E  E  S S S S S S S S S S S S  
--------------------------|--------------------------|--------------------------------|
--------------------------|--------------------------|--------------------------------|
--------------------------|--------------------------|--------------------------------|
--------------------------|--------------------------|--------------------------------|
--------------------------|--------------------------|--------------------------------|
--8--8--8-8--8--8-8-8-8-8-|--5--5--5-5--5--5-5-5-5-5-|--1--1--1-1-1-1-0-0-0-0-0-0-0-0-|


  E  E  S E  E  S S S S S    E  E  S E  E  S S S S S    E  E  S E  E  S S S S S  
--------------------------|--------------------------|--------------------------|
--------------------------|--------------------------|--------------------------|
--------------------------|--------------------------|--------------------------|
--------------------------|--------------------------|--------------------------|
--------------------------|--------------------------|--------------------------|
--5--5--5-5--5--5-5-5-5-5-|--8--8--8-8--8--8-8-8-8-8-|--5--5--5-5--5--5-5-5-5-5-|


  E  E  S S S S S S S S S S S S    E  E  S E  E  S S S S S    E  E  S E  E  S S S S S  
--------------------------------|--------------------------|--------------------------|
--------------------------------|--------------------------|--------------------------|
--------------------------------|--------------------------|--------------------------|
--------------------------------|--------------------------|--------------------------|
--------------------------------|--------------------------|--------------------------|
--1--1--1-1-1-1-0-0-0-0-0-0-0-0-|--5--5--5-5--5--5-5-5-5-5-|--8--8--8-8--8--8-8-8-8-8-|


  E  E  S E  E  S S S S S    E  E  S S S S S S S S S S S S    S S  S S  S S S  S S E   S S  S S  S S S  
--------------------------|--------------------------------|-------------------------------------------|
--------------------------|--------------------------------|----------------------------------8--------|
--------------------------|--------------------------------|---------7--------10---9~--7-9-10---10-9-7-|
--------------------------|--------------------------------|--7-9-10---10-9-7----7---------------------|
--------------------------|--------------------------------|-------------------------------------------|
--5--5--5-5--5--5-5-5-5-5-|--1--1--1-1-1-1-0-0-0-0-0-0-0-0-|-------------------------------------------|


  S S  S S  S S S  S S E   S S  S S  S S S  S S  S S    S S  S S  S S S  S S E   S S  S S  S S S  
-----------------------------------------------------|-------------------------------------------|
----------------------------------9--------10-9------|----------------------------------8--------|
---------7--------10---9~--7-9-10---10-9-7------10-9-|---------7--------10---9~--7-9-10---10-9-7-|
--7-9-10---10-9-7----7-------------------------------|--7-9-10---10-9-7----7---------------------|
-----------------------------------------------------|-------------------------------------------|
-----------------------------------------------------|-------------------------------------------|


  S S  S S  S S S  S S E   S S  S S  S S S  S S  S S    S S  S S  S S S  S S E   S S  S S  S S S  
-----------------------------------------------------|-------------------------------------------|
----------------------------------9--------10-9------|----------------------------------8--------|
---------7--------10---9~--7-9-10---10-9-7------10-9-|---------7--------10---9~--7-9-10---10-9-7-|
--7-9-10---10-9-7----7-------------------------------|--7-9-10---10-9-7----7---------------------|
-----------------------------------------------------|-------------------------------------------|
-----------------------------------------------------|-------------------------------------------|


  S S  S S  S S S  S S E   S S  S S  S S S  S S  S S    S S  S S  S S S  S S E   S S  S S  S S S  
-----------------------------------------------------|-------------------------------------------|
----------------------------------9--------10-9------|----------------------------------8--------|
---------7--------10---9~--7-9-10---10-9-7------10-9-|---------7--------10---9~--7-9-10---10-9-7-|
--7-9-10---10-9-7----7-------------------------------|--7-9-10---10-9-7----7---------------------|
-----------------------------------------------------|-------------------------------------------|
-----------------------------------------------------|-------------------------------------------|


  S S  S S  S S S  S S E   S S  S S  S S S  S S  S S    
------------------------------------------------------||
----------------------------------9--------10-9-------||
---------7--------10---9~--7-9-10---10-9-7------10-9-*||
--7-9-10---10-9-7----7-------------------------------*||
------------------------------------------------------||
------------------------------------------------------||

Left Distortion
                                     S S  S S  S S S  S S E   S S  S S  S S S  
E||-------|-------|-------|-------|-------------------------------------------|
B||-------|-------|-------|-------|----------------------------------8--------|
G||-------|-------|-------|-------|---------7--------10---9~--7-9-10---10-9-7-|
D||-------|-------|-------|-------|--7-9-10---10-9-7----7---------------------|
A||-------|-------|-------|-------|-------------------------------------------|
E||-------|-------|-------|-------|-------------------------------------------|


  S S  S S  S S S  S S E   S S  S S  S S S  S S  S S    S S  S S  S S S  S S E   S S  S S  S S S  
-----------------------------------------------------|-------------------------------------------|
----------------------------------9--------10-9------|----------------------------------8--------|
---------7--------10---9~--7-9-10---10-9-7------10-9-|---------7--------10---9~--7-9-10---10-9-7-|
--7-9-10---10-9-7----7-------------------------------|--7-9-10---10-9-7----7---------------------|
-----------------------------------------------------|-------------------------------------------|
-----------------------------------------------------|-------------------------------------------|


  S S  S S  S S S  S S E   S S  S S  S S S  S S  S S    S S  S S  S S S  S S E   S S  S S  S S S  
-----------------------------------------------------|-------------------------------------------|
----------------------------------9--------10-9------|----------------------------------8--------|
---------7--------10---9~--7-9-10---10-9-7------10-9-|---------7--------10---9~--7-9-10---10-9-7-|
--7-9-10---10-9-7----7-------------------------------|--7-9-10---10-9-7----7---------------------|
-----------------------------------------------------|-------------------------------------------|
-----------------------------------------------------|-------------------------------------------|


  S S  S S  S S S  S S E   S S  S S  S S S  S S  S S    S S  S S  S S S  S S E   S S  S S  S S S  
-----------------------------------------------------|-------------------------------------------|
----------------------------------9--------10-9------|----------------------------------8--------|
---------7--------10---9~--7-9-10---10-9-7------10-9-|---------7--------10---9~--7-9-10---10-9-7-|
--7-9-10---10-9-7----7-------------------------------|--7-9-10---10-9-7----7---------------------|
-----------------------------------------------------|-------------------------------------------|
-----------------------------------------------------|-------------------------------------------|


  S S  S S  S S S  S S E   S S  S S  S S S  S S  S S    S S  S S  S S S  S S E   S S  S S  S S S  
-----------------------------------------------------|-------------------------------------------|
----------------------------------9--------10-9------|----------------------------------8--------|
---------7--------10---9~--7-9-10---10-9-7------10-9-|---------7--------10---9~--7-9-10---10-9-7-|
--7-9-10---10-9-7----7-------------------------------|--7-9-10---10-9-7----7---------------------|
-----------------------------------------------------|-------------------------------------------|
-----------------------------------------------------|-------------------------------------------|


  S S  S S  S S S  S S E   S S  S S  S S S  S S  S S    S S  S S  S S S  S S E   S S  S S  S S S  
-----------------------------------------------------|-------------------------------------------|
----------------------------------9--------10-9------|----------------------------------8--------|
---------7--------10---9~--7-9-10---10-9-7------10-9-|---------7--------10---9~--7-9-10---10-9-7-|
--7-9-10---10-9-7----7-------------------------------|--7-9-10---10-9-7----7---------------------|
-----------------------------------------------------|-------------------------------------------|
-----------------------------------------------------|-------------------------------------------|


  S S  S S  S S S  S S E   S S  S S  S S S  S S  S S                                                      
-----------------------------------------------------||-----|----|----|----|----|----|----|----|----|----|
----------------------------------9--------10-9------||-----|----|----|----|----|----|----|----|----|----|
---------7--------10---9~--7-9-10---10-9-7------10-9-||*----|----|----|----|----|----|----|----|----|----|
--7-9-10---10-9-7----7-------------------------------||*----|----|----|----|----|----|----|----|----|----|
-----------------------------------------------------||-----|----|----|----|----|----|----|----|----|----|
-----------------------------------------------------||-----|----|----|----|----|----|----|----|----|----|


                                            E  E  S E  E  S S S S S    E  E  S E  E  S S S S S  
----|----|----|----|----|----|-----------|--------------------------|--------------------------|
----|----|----|----|----|----|-----------|--------------------------|--------------------------|
----|----|----|----|----|----|-----------|--------------------------|--------------------------|
----|----|----|----|----|----|-----------|--------------------------|--------------------------|
----|----|----|----|----|----|-----------|--------------------------|--------------------------|
----|----|----|----|----|----|-----------|--5--5--5-5--5--5-5-5-5-5-|--8--8--8-8--8--8-8-8-8-8-|


  E  E  S E  E  S S S S S    E  E  S S S S S S S S S S S S    E  E  S E  E  S S S S S  
--------------------------|--------------------------------|--------------------------|
--------------------------|--------------------------------|--------------------------|
--------------------------|--------------------------------|--------------------------|
--------------------------|--------------------------------|--------------------------|
--------------------------|--------------------------------|--------------------------|
--5--5--5-5--5--5-5-5-5-5-|--1--1--1-1-1-1-0-0-0-0-0-0-0-0-|--5--5--5-5--5--5-5-5-5-5-|


  E  E  S E  E  S S S S S    E  E  S E  E  S S S S S    E  E  S S S S S S S S S S S S  
--------------------------|--------------------------|--------------------------------|
--------------------------|--------------------------|--------------------------------|
--------------------------|--------------------------|--------------------------------|
--------------------------|--------------------------|--------------------------------|
--------------------------|--------------------------|--------------------------------|
--8--8--8-8--8--8-8-8-8-8-|--5--5--5-5--5--5-5-5-5-5-|--1--1--1-1-1-1-0-0-0-0-0-0-0-0-|


  E  E  S E  E  S S S S S    E  E  S E  E  S S S S S    E  E  S E  E  S S S S S  
--------------------------|--------------------------|--------------------------|
--------------------------|--------------------------|--------------------------|
--------------------------|--------------------------|--------------------------|
--------------------------|--------------------------|--------------------------|
--------------------------|--------------------------|--------------------------|
--5--5--5-5--5--5-5-5-5-5-|--8--8--8-8--8--8-8-8-8-8-|--5--5--5-5--5--5-5-5-5-5-|


  E  E  S S S S S S S S S S S S    E  E  S E  E  S S S S S    E  E  S E  E  S S S S S  
--------------------------------|--------------------------|--------------------------|
--------------------------------|--------------------------|--------------------------|
--------------------------------|--------------------------|--------------------------|
--------------------------------|--------------------------|--------------------------|
--------------------------------|--------------------------|--------------------------|
--1--1--1-1-1-1-0-0-0-0-0-0-0-0-|--5--5--5-5--5--5-5-5-5-5-|--8--8--8-8--8--8-8-8-8-8-|


  E  E  S E  E  S S S S S    E  E  S S S S S S S S S S S S    S S  S S  S S S  S S E   S S  S S  S S S  
--------------------------|--------------------------------|-------------------------------------------|
--------------------------|--------------------------------|----------------------------------8--------|
--------------------------|--------------------------------|---------7--------10---9~--7-9-10---10-9-7-|
--------------------------|--------------------------------|--7-9-10---10-9-7----7---------------------|
--------------------------|--------------------------------|-------------------------------------------|
--5--5--5-5--5--5-5-5-5-5-|--1--1--1-1-1-1-0-0-0-0-0-0-0-0-|-------------------------------------------|


  S S  S S  S S S  S S E   S S  S S  S S S  S S  S S    S S  S S  S S S  S S E   S S  S S  S S S  
-----------------------------------------------------|-------------------------------------------|
----------------------------------9--------10-9------|----------------------------------8--------|
---------7--------10---9~--7-9-10---10-9-7------10-9-|---------7--------10---9~--7-9-10---10-9-7-|
--7-9-10---10-9-7----7-------------------------------|--7-9-10---10-9-7----7---------------------|
-----------------------------------------------------|-------------------------------------------|
-----------------------------------------------------|-------------------------------------------|


  S S  S S  S S S  S S E   S S  S S  S S S  S S  S S    S S  S S  S S S  S S E   S S  S S  S S S  
-----------------------------------------------------|-------------------------------------------|
----------------------------------9--------10-9------|----------------------------------8--------|
---------7--------10---9~--7-9-10---10-9-7------10-9-|---------7--------10---9~--7-9-10---10-9-7-|
--7-9-10---10-9-7----7-------------------------------|--7-9-10---10-9-7----7---------------------|
-----------------------------------------------------|-------------------------------------------|
-----------------------------------------------------|-------------------------------------------|


  S S  S S  S S S  S S E   S S  S S  S S S  S S  S S    S S  S S  S S S  S S E   S S  S S  S S S  
-----------------------------------------------------|-------------------------------------------|
----------------------------------9--------10-9------|----------------------------------8--------|
---------7--------10---9~--7-9-10---10-9-7------10-9-|---------7--------10---9~--7-9-10---10-9-7-|
--7-9-10---10-9-7----7-------------------------------|--7-9-10---10-9-7----7---------------------|
-----------------------------------------------------|-------------------------------------------|
-----------------------------------------------------|-------------------------------------------|


  S S  S S  S S S  S S E   S S  S S  S S S  S S  S S    
------------------------------------------------------||
----------------------------------9--------10-9-------||
---------7--------10---9~--7-9-10---10-9-7------10-9-*||
--7-9-10---10-9-7----7-------------------------------*||
------------------------------------------------------||
------------------------------------------------------||

Right Distortion 2
                                                                     S S S S S S S S S   E   S S S S S S S  
E||-------|-------|-------|-------|-------|-------|-------|-------|----------------------------------------|
B||-------|-------|-------|-------|-------|-------|-------|-------|----------------------------------------|
G||-------|-------|-------|-------|-------|-------|-------|-------|----------------------------------------|
D||-------|-------|-------|-------|-------|-------|-------|-------|--------------------------------5-------|
A||-------|-------|-------|-------|-------|-------|-------|-------|--------5-------8---<>7~--5-7-8---8-7-5-|
E||-------|-------|-------|-------|-------|-------|-------|-------|--5-7-8---8-7-5---5---------------------|


  S S S S S S S S S E   S S S S S S S S S S S    S S S S S S S S S E   S S S S S S S  
----------------------------------------------|--------------------------------------|
----------------------------------------------|--------------------------------------|
----------------------------------------------|--------------------------------------|
------------------------------6-------7-6-----|------------------------------5-------|
--------5-------8---7~--5-7-8---8-7-5-----8-7-|--------5-------8---7~--5-7-8---8-7-5-|
--5-7-8---8-7-5---5---------------------------|--5-7-8---8-7-5---5-------------------|


  S S S S S S S S S E   S S S S S S S S S S S    S S S S S S S S S E   S S S S S S S  
----------------------------------------------|--------------------------------------|
----------------------------------------------|--------------------------------------|
----------------------------------------------|--------------------------------------|
------------------------------6-------7-6-----|------------------------------5-------|
--------5-------8---7~--5-7-8---8-7-5-----8-7-|--------5-------8---7~--5-7-8---8-7-5-|
--5-7-8---8-7-5---5---------------------------|--5-7-8---8-7-5---5-------------------|


  S S S S S S S S S E   S S S S S S S S S S S    S S S S S S S S S E   S S S S S S S  
----------------------------------------------|--------------------------------------|
----------------------------------------------|--------------------------------------|
----------------------------------------------|--------------------------------------|
------------------------------6-------7-6-----|------------------------------5-------|
--------5-------8---7~--5-7-8---8-7-5-----8-7-|--------5-------8---7~--5-7-8---8-7-5-|
--5-7-8---8-7-5---5---------------------------|--5-7-8---8-7-5---5-------------------|


  S S S S S S S S S E   S S S S S S S S S S S                                                                
----------------------------------------------||-----|----|----|----|----|----|----|----|----|----|----|----|
----------------------------------------------||-----|----|----|----|----|----|----|----|----|----|----|----|
----------------------------------------------||*----|----|----|----|----|----|----|----|----|----|----|----|
------------------------------6-------7-6-----||*----|----|----|----|----|----|----|----|----|----|----|----|
--------5-------8---7~--5-7-8---8-7-5-----8-7-||-----|----|----|----|----|----|----|----|----|----|----|----|
--5-7-8---8-7-5---5---------------------------||-----|----|----|----|----|----|----|----|----|----|----|----|


                                                                   E  E  S E  E  S S S S S  
----|----|----|----|----|----|----|----|----|----|----|----|----|--------------------------|
----|----|----|----|----|----|----|----|----|----|----|----|----|--------------------------|
----|----|----|----|----|----|----|----|----|----|----|----|----|--------------------------|
----|----|----|----|----|----|----|----|----|----|----|----|----|--------------------------|
----|----|----|----|----|----|----|----|----|----|----|----|----|--------------------------|
----|----|----|----|----|----|----|----|----|----|----|----|----|--5--5--5-5--5--5-5-5-5-5-|


  E  E  S E  E  S S S S S    E  E  S E  E  S S S S S    E  E  S S S S S S S S S S S S  
--------------------------|--------------------------|--------------------------------|
--------------------------|--------------------------|--------------------------------|
--------------------------|--------------------------|--------------------------------|
--------------------------|--------------------------|--------------------------------|
--------------------------|--------------------------|--------------------------------|
--8--8--8-8--8--8-8-8-8-8-|--5--5--5-5--5--5-5-5-5-5-|--1--1--1-1-1-1-0-0-0-0-0-0-0-0-|


  E  E  S E  E  S S S S S    E  E  S E  E  S S S S S    E  E  S E  E  S S S S S  
--------------------------|--------------------------|--------------------------|
--------------------------|--------------------------|--------------------------|
--------------------------|--------------------------|--------------------------|
--------------------------|--------------------------|--------------------------|
--------------------------|--------------------------|--------------------------|
--5--5--5-5--5--5-5-5-5-5-|--8--8--8-8--8--8-8-8-8-8-|--5--5--5-5--5--5-5-5-5-5-|


  E  E  S S S S S S S S S S S S    S S S S S S S S S E   S S S S S S S  
--------------------------------|--------------------------------------|
--------------------------------|--------------------------------------|
--------------------------------|--------------------------------------|
--------------------------------|------------------------------5-------|
--------------------------------|--------5-------8---7~--5-7-8---8-7-5-|
--1--1--1-1-1-1-0-0-0-0-0-0-0-0-|--5-7-8---8-7-5---5-------------------|


  S S S S S S S S S E   S S S S S S S S S S S    S S S S S S S S S E   S S S S S S S  
----------------------------------------------|--------------------------------------|
----------------------------------------------|--------------------------------------|
----------------------------------------------|--------------------------------------|
------------------------------6-------7-6-----|------------------------------5-------|
--------5-------8---7~--5-7-8---8-7-5-----8-7-|--------5-------8---7~--5-7-8---8-7-5-|
--5-7-8---8-7-5---5---------------------------|--5-7-8---8-7-5---5-------------------|


  S S S S S S S S S E   S S S S S S S S S S S    S S S S S S S S S E   S S S S S S S  
----------------------------------------------|--------------------------------------|
----------------------------------------------|--------------------------------------|
----------------------------------------------|--------------------------------------|
------------------------------6-------7-6-----|------------------------------5-------|
--------5-------8---7~--5-7-8---8-7-5-----8-7-|--------5-------8---7~--5-7-8---8-7-5-|
--5-7-8---8-7-5---5---------------------------|--5-7-8---8-7-5---5-------------------|


  S S S S S S S S S E   S S S S S S S S S S S    S S S S S S S S S E   S S S S S S S  
----------------------------------------------|--------------------------------------|
----------------------------------------------|--------------------------------------|
----------------------------------------------|--------------------------------------|
------------------------------6-------7-6-----|------------------------------5-------|
--------5-------8---7~--5-7-8---8-7-5-----8-7-|--------5-------8---7~--5-7-8---8-7-5-|
--5-7-8---8-7-5---5---------------------------|--5-7-8---8-7-5---5-------------------|


  S S S S S S S S S E   S S S S S S S S S S S    
-----------------------------------------------||
-----------------------------------------------||
----------------------------------------------*||
------------------------------6-------7-6-----*||
--------5-------8---7~--5-7-8---8-7-5-----8-7--||
--5-7-8---8-7-5---5----------------------------||

Bass
G||-------|-------|-------|-------|-------|-------|-------|-------|-------|-------|-------|-------|
D||-------|-------|-------|-------|-------|-------|-------|-------|-------|-------|-------|-------|
A||-------|-------|-------|-------|-------|-------|-------|-------|-------|-------|-------|-------|
E||-------|-------|-------|-------|-------|-------|-------|-------|-------|-------|-------|-------|
B||-------|-------|-------|-------|-------|-------|-------|-------|-------|-------|-------|-------|


  E  E  S S S E  E  S S S S S S S    S S E  S S S E  E  S S S E  S S E  E   
----------------------------------|----------------------------------------|
----------------------------------|----------------------------------------|
----------------------------------|----------------------------------------|
--5--5--5-5-5-5--5--5-5-5-5-5-5-5-|--5-------------------------------------|
----------------------------------|----6-6--6-6-6-6--6--6-6-6-6--6-6-6--6--|


  E  E  S S S E  E  S S S S S S S    S S E  S S S E  E  S S S E  S S E  E       E  E  E  E  E  E  E  E   
----------------------------------|----------------------------------------||---------------------------|
----------------------------------|----------------------------------------||*--------------------------|
----------------------------------|----------------------------------------||---------------------------|
--5--5--5-5-5-5--5--5-5-5-5-5-5-5-|--5-------------------------------------||*--5-----------------------|
----------------------------------|----6-6--6-6-6-6--6--6-6-6-6--6-6-6--6--||---------------------------|


                    E  E  E  E  E  E  E  S S    E  E  E  E  E  E  E  E     E  E  E  E  E  E  E  S S  
-----|-----|-----|---------------------------|--------------------------|---------------------------|
-----|-----|-----|---------------------------|--------------------------|---------------------------|
-----|-----|-----|---------------------------|--------------------------|-------------------------7-|
-----|-----|-----|--5--5---------------------|--------------------------|--5--5---------------------|
-----|-----|-----|-------------------------6-|--6-----------------------|---------------------------|


  E  E  E  E  E  E  S S S S    E  E  E  S S S S S S S S S S    E  E  S S S S S S S S S S S S  
----------------------------|-------------------------------|--------------------------------|
----------------------6-----|-------------------------------|--------------------------------|
--7-----------7---------7---|-----------------------------7-|--8--8----8-8-8---8-8-8---------|
--------------------------7-|--5--5-----5-5---5-5-5---5-5---|------------------------------5-|
----------------------------|-------------------------------|--------------------------------|


  E  E  S S S S S S S S S S S S    E  E  S S S S S S S S S S S S    E  E  S S S S S S S S S S S S  
--------------------------------|--------------------------------|--------------------------------|
--------------------------------|--------------------------6-----|--------------------------------|
----------------------------5-7-|--7--7----7-7-7---7-7-7-----7---|----------------------------5-7-|
--5--5----5-5-5---5-5-5---5-----|------------------------------7-|--5--5----5-5-5---5-5-5---5-----|
--------------------------------|--------------------------------|--------------------------------|


  E  E  S S S S S S S S S S S S    E  E  S S S S S S S S S S S S    E  E  E  S S S S S S S S S S        
--------------------------------|--------------------------------|-------------------------------|-----|
--------------------------------|--------------------------------|-------------------------6-----|-----|
--8--8----8-8-8---8-----------7-|----------------------------5-7-|--7--7-----7-7---7-7-7-----7---|-----|
--------------------9-8---8-8---|--5--5----5-5-5---5-5-5---5-----|-----------------------------7-|-----|
--------------------------------|--------------------------------|-------------------------------|-----|


  E  E  S E  E  S S S S  S    E  E  S E  E  S S S E     E  E  S E  E  S S S S  S  
---------------------------|-------------------------|---------------------------|
---------------------------|-------------------------|---------------------------|
---------------------------|-------------------------|---------------------------|
--5--5--5-5--5--5-5-5-5s-7-|--8--8--8-8--8--8-8-8-8--|--5--5--5-5--5--5-5-5-5s-0-|
---------------------------|-------------------------|---------------------------|


  E  E  S S S S S S S S S S S S    E  E  S E  E  S S S S  S    E  E  S E  E  S S S E   
--------------------------------|---------------------------|-------------------------|
--------------------------------|---------------------------|-------------------------|
--------------------------------|---------------------------|-------------------------|
--1--1--1-1-1-1-0-0-0-0-0-0-0-0-|--5--5--5-5--5--5-5-5-5s-7-|--8--8--8-8--8--8-8-8-8--|
--------------------------------|---------------------------|-------------------------|


  E  E  S E  E  S S S S  S    E  E  S S S S S S S S S S S S    E  E  S E  E  S S S S  S  
---------------------------|--------------------------------|---------------------------|
---------------------------|--------------------------------|---------------------------|
---------------------------|--------------------------------|---------------------------|
--5--5--5-5--5--5-5-5-5s-0-|--1--1--1-1-1-1-0-0-0-0-0-0-0-0-|--5--5--5-5--5--5-5-5-5s-7-|
---------------------------|--------------------------------|---------------------------|


  E  E  S E  E  S S S E     E  E  S E  E  S S S S  S    E  E  S S S S S S S S S S S S  
-------------------------|---------------------------|--------------------------------|
-------------------------|---------------------------|--------------------------------|
-------------------------|---------------------------|--------------------------------|
--8--8--8-8--8--8-8-8-8--|--5--5--5-5--5--5-5-5-5s-0-|--1--1--1-1-1-1-0-0-0-0-0-0-0-0-|
-------------------------|---------------------------|--------------------------------|


  E  E  S E  E  S S S S  S    E  E  S E  E  S S S E     E  E  S E  E  S S S S  S  
---------------------------|-------------------------|---------------------------|
---------------------------|-------------------------|---------------------------|
---------------------------|-------------------------|---------------------------|
--5--5--5-5--5--5-5-5-5s-7-|--8--8--8-8--8--8-8-8-8--|--5--5--5-5--5--5-5-5-5s-0-|
---------------------------|-------------------------|---------------------------|


  E  E  S S S S S S S S S S S S    E  E  S S S E  E  S S S S S S S    S S E  S S S E  E  S S S E  S S E  E   
--------------------------------|----------------------------------|----------------------------------------|
--------------------------------|----------------------------------|----------------------------------------|
--------------------------------|----------------------------------|----------------------------------------|
--1--1--1-1-1-1-0-0-0-0-0-0-0-0-|--5--5--5-5-5-5--5--5-5-5-5-5-5-5-|--5-------------------------------------|
--------------------------------|----------------------------------|----6-6--6-6-6-6--6--6-6-6-6--6-6-6--6--|


  E  E  S S S E  E  S S S S S S S    S S E  S S S E  E  S S S E  S S E  E   
----------------------------------|----------------------------------------|
----------------------------------|----------------------------------------|
----------------------------------|----------------------------------------|
--5--5--5-5-5-5--5--5-5-5-5-5-5-5-|--5-------------------------------------|
----------------------------------|----6-6--6-6-6-6--6--6-6-6-6--6-6-6--6--|


  E  E  S S S E  E  S S S S S S S    S S E  S S S E  E  S S S E  S S E  E   
----------------------------------|----------------------------------------|
----------------------------------|----------------------------------------|
----------------------------------|----------------------------------------|
--5--5--5-5-5-5--5--5-5-5-5-5-5-5-|--5-------------------------------------|
----------------------------------|----6-6--6-6-6-6--6--6-6-6-6--6-6-6--6--|


  E  E  S S S E  E  S S S S S S S    S S E  S S S E  E  S S S E  S S E  E     
----------------------------------|-----------------------------------------||
----------------------------------|----------------------------------------*||
----------------------------------|-----------------------------------------||
--5--5--5-5-5-5--5--5-5-5-5-5-5-5-|--5-------------------------------------*||
----------------------------------|----6-6--6-6-6-6--6--6-6-6-6--6-6-6--6---||




Duration Legend
---------------
W - whole
H - half
Q - quarter
E - 8th
S - 16th
. - note dotted

Tablature Legend
----------------
L - tied note
g - grace note
b - bend
S - shift slide
s - legato slide
/ -  slide into from below or out of upwards
\ -  slide into from above or out of downwards
~ - vibrato

Login or Register to remove this ad.

4 comments on 1st Movement of The Odyssey

Can't remember this at all

Can't remember this at all from the Halo 2 OST, but oh well tab seems to be spot on!

its towards the end of the

its towards the end of the first level where you play as the arbiter chasing the heretic leader in a banshee!

Ah that makes sense I was

5

Ah that makes sense I was always really quick through that part, never really took my time through that section.

=}

5

Great job