Ads

Vortal Combat (Half-Life 2) Bass Tab

Submitted: Jun 18, 2011 by

0
Download | Listen
Game: Half-Life 2
Composer(s): Kelly Bailey
Style: Fingerstyle, Transcription

AutoScroll: Slow | Medium | Fast
Half-LifeĀ² Episodes Music - Vortal Combat - Tabbed by ReYd3n

G |-------|-------|----------------|-------|-------|-------|----------------|
D |-------|-------|----------------|-------|-------|-------|----------------|
A |-------|-------|----------------|-------|-------|-------|--6--5----------|
E |--10---|-------|--5--5b---------|-------|--1----|--3----|----------------|
                         ------------->
                              1/2

  |----------------|----------------------------|--------------3-------------|
  |----------------|----------------------------|----------------------------|
  |--------6--5----|--3--5--------3--5----------|--3--5--5--3----------------|
  |----------------|----------------------------|--------------------6-------|


  |----------------------------|----------------------------|
  |----------------------------|----------------------------|
  |----------------------------|----------------------------|
  |--5--6--------5--6----------|--5--6-----6--6--6\---------|


  |----------------------------|----------------------------|
  |----------------------------|----------------------------|
  |----------------------------|--------------------6-------|
  |--1--1--1--1--1--1--1--1----|--3--3--3--3--3--3----------|


  |----------------------------|----------------------------|
  |----------------------------|----------------------------|
  |--5-----3--5--------3--5----|--------3--6--6--6--5-------|
  |----------------------------|----------------------------|


  |----------------------------|----------------------------|
  |----------------------------|--------------3-------------|
  |--5-----3--5--------3--5----|--------3--5-----5--3--5----|
  |----------------------------|----------------------------|


  |----------------------------|----------------------------|
  |----------------------------|--------------------8\------|
  |----------------------------|----------------------------|
  |--6-----5--6--------5--6----|--------5--6--6--5----------|


  |----------------------------|----------------------------|
  |----------------------------|----------------------------|
  |----------------------------|--------------------6-------|
  |--1--1--1--1--1--1--1--1----|--3--3--3--3--3--3----------|


  |----------------------------|----------------------------|
  |----------------------------|--------------3-------------|
  |--5-----3--5--------3--5----|--------3--5-----5--3--5----|
  |----------------------------|----------------------------|


  |----------------------------|----------------------------|
  |----------------------------|--------------3-------------|
  |--5-----3--5--------3--5----|--------3--5-----5--3--5----|
  |----------------------------|----------------------------|


  |----------------------------|----------------------------|
  |----------------------------|----------------------------|
  |----------------------------|--------------5-------------|
  |--6-----5--6--------5--6----|--------5--6-----6--5\------|


  |----------------------------|----------------------------|
  |----------------------------|----------------------------|
  |----------------------------|--------------------6-------|
  |--1--1--1--1--1--1--1--1----|--3--3--3--3--3--3----------|


  |----------------------------|----------------------------|
  |----------------------------|--------------3--5----------|
  |--5-----3--5--------3--5----|--------3--5--------5.------|
  |----------------------------|----------------------------|


  |-------------|--------------|-------------|--------------|
  |-------------|--------------|-------------|--------------|
  |-------------|--------------|-------------|--------------|
  |-------------|--------------|-------------|--------------|


  |----------------------------|--------------------3-------|
  |----------------------------|----------------------------|
  |--5-----3--5--------3--5----|--------3--5--5--3----------|
  |----------------------------|----------------------------|


  |----------------------------|--------------------3-------|
  |----------------------------|----------------------------|
  |--5-----3--5--------3--5----|--------3--5--5--3----------|
  |----------------------------|----------------------------|


  |----------------------------|--------------------3-------|
  |----------------------------|----------------------------|
  |--5-----3--5--------3--5----|--------3--5--5--3----------|
  |----------------------------|----------------------------|


  |----------------------------|----------------------------|
  |----------------------------|----------------------------|
  |--1--1--1--1--1--1--1--1----|--1--1--1--1--1--1--1-------|
  |----------------------------|-----------------------1----|


  |----------------------------|----------------------------|
  |----------------------------|--------------------3\------|
  |--5-----------5--5----------|--5--5--------5--5----------|
  |----------------------------|----------------------------|


  |----------------------------|----------------------------|
  |----------------------------|--------------------3\------|
  |----------------------------|--------------5--5----------|
  |--6--6--------6--6----------|--6--6----------------------|


  |----------------------------|----------------------------|-------|
  |----------------------------|----------------------------|-------|
  |----------------------------|--------------x.----6.------|--5----|
  |--1--1--------1--1----------|--3--3----------------------|-------|


  |----------------------------|----------------------------|
  |--7--------5--7--5--5-------|----------------------------|
  |----------------------------|--5-----3--5--5-------------|
  |----------------------------|----------------------------|


  |----------------------------|----------------------------|
  |--------------3--5----------|----------------------------|
  |--5-----3--5--------5-------|----------------------------|
  |----------------------------|--6-----5--6--6-------------|


  |----------------------------|----------------------------|
  |--------------------8-------|----------------------------|
  |----------------------------|----------------------------|
  |--6-----5--6--6--5----------|--1--1--0--1--1--x--x-------|


  |----------------------------|----------------------------|----------------|
  |----------------------------|----------------------------|----------------|
  |----------------------------|--5--5--5--5--5--5--5-------|--6.-3.-6.-5----|
  |--3--3--2--3--3--3--3-------|----------------------------|----------------|


  |-------|-------|-------|-------|-------|-------|-------|-------|
  |-------|-------|-------|-------|-------|-------|-------|-------|
  |-------|-------|-------|-------|-------|-------|-------|-------|
  |-------|-------|-------|-------|-------|-------|-------|-------|


  |----------------------------|----------------------------|
  |----------------------------|----------------------------|
  |--5--5--------5--5----------|--5--5-----------8--5-------|
  |----------------------------|-----------------------7----|


  |----------------------------|----------------------------|
  |----------------------------|----------------------------|
  |----------------------------|--------------3--5--3\------|
  |--6--6--------6--6----------|--6--6----------------------|


  |----------------------------|----------------------------|
  |----------------------------|--------------------3--5----|
  |----------------------------|--3--3--------3--5----------|
  |--6--6--------6--6----------|----------------------------|


  |----------------------------|-----5----------------------|
  |----------------------------|--7-----7--5--5--3--3\------|
  |--5--5--------5--5--5-------|----------------------------|
  |----------------------------|----------------------------|


  |----------------------------|--------------------3-------|
  |----------------------------|----------------------------|
  |--5-----3--5--------3--5----|--------3--5--5--3----------|
  |----------------------------|----------------------------|


  |----------------------------|----------------------------|
  |----------------------------|----------------------------|
  |----------------------------|----------------------------|
  |--6--6-----6--6-----6--6----|-----6--6--6--6--6--6\------|


  |----------------------------|----------------------------|
  |----------------------------|----------------------------|
  |----------------------------|--------------------6-------|
  |--1--1--1--1--1--1--1--1----|--3--3--3--3--3--3----------|


  |----------------------------|----------------------------|
  |----------------------------|----------------------------|
  |--5-----3--5--------3--5----|--------3--6--6--6--5-------|
  |----------------------------|----------------------------|


  |----------------------------|--------------------3-------|
  |----------------------------|----------------------------|
  |--5-----3--5--------3--5----|--------3--5--5--3----------|
  |----------------------------|----------------------------|


  |----------------------------|--------------------3-------|
  |----------------------------|----------------------------|
  |--5-----3--5--------3--5----|--------3--5--5--3----------|
  |----------------------------|----------------------------|


  |----------------------------|--------------------3-------|
  |----------------------------|----------------------------|
  |--5-----3--5--------3--5----|--------3--5--5--3----------|
  |----------------------------|----------------------------|


  |----------------------------|----------------------------|
  |----------------------------|----------------------------|
  |--1--1--1--1--1--1--1--1----|--1--1--1--1--1--1--1-------|
  |----------------------------|-----------------------1----|
Login or Register to remove this ad.