Ads

Sector Sweep (Half Life 2: Episode Two) Guitar Tab

Submitted: Nov 10, 2011 by N0Stars

5
Average: 5 (4 votes)
Download | Listen
Game: Half Life 2: Episode Two
Composer(s): Kelly Bailey
Style: Arrangement, Fingerstyle, Percussion

AutoScroll: Slow | Medium | Fast
#----------------------------------PLEASE NOTE---------------------------------#
#This file is the author's own work and represents their interpretation of the #
#song. You may only use this file for private study, scholarship, or research. #
#------------------------------------------------------------------------------##


Gtr I (E A D G B E) - 'Untitled'

    Gtr I
    E E E E E E E E   E E E E E E E E     E E E E E E E E   E E E E E E E E
||------------------|------------------||-----3---1-------|-----------------|
||o-----------------|-----------------o||-------------3---|-----------------|
||------------------|------------------||-0---------------|-----------------|
||------------------|------------------||-----------------|-----------------|
||o-----------------|-----------------o||-----------------|-----------------|
||--1S3-3-3-3-3-3-3-|-3-3-3-3-3S1-1-1--||-1S3-3-3-3-3-3-3-|-3-3-3-3-3S1-1-1-|


  E E E E E E E E   E E E E E E E E   E E E E E E E E   E E E E E E E E
|-----3---1-------|-----------------|-----3---1-------|-----------------|
|-------------3---|-----------------|-----0-------3---|-----------------|
|-0---------------|-----------------|-0-----------0---|-----------------|
|-----------------|-----------------|-----------------|-----------------|
|-----------------|-------------x-x-|-----------------|-----------------|
|-1S3-3-3-3-3-3-3-|-3-3-3-3-3S1-x-x-|-1S3-x-3-3-3-x-3-|-3-3-x-3-3S1-x-1-|


  E E E E E  E  E E   E E E E E E E E   E E E E E  E  E E   E E E E E E E E
|-----3---1-(1)-----|-----------------|-----3---1-(1)-----|-----------------|
|-----0---------3---|-----------------|-----0---------3---|-----------------|
|-0-------------0---|-----------------|-0-------------0---|-----------------|
|-------------------|-----------------|-------------------|-----------------|
|-------------------|-----------------|-------------------|-----------------|
|-1S3-x-3-3--3--x-3-|-3-3-x-3-3S1-x-1-|-1S3-x-3-3--3--x-3-|-3-3-x-3-3S1-x-1-|


                                        $
  E E E E E E E E   E E E E E E E E     E E E E E E E E   E E E E  E E E E
|-----3---1-------|-----------------||--1s3-1-3---3---3-|-5-7-5-7--5S7S5S7--|
|-----0-------3---|-------------1---||o-----0-----------|-----0--------0----|
|-0-----------0---|-----0-0---------||------0-----------|-----0--------0----|
|-----------------|-----------------||------------------|-------------------|
|-----------------|---------0-0-----||o-----------------|-------------------|
|-1S3-x-3-3-3-x-3-|-3-3---------1-1-||--1S3-x-3-3-3-x-3-|-3-3-x-3--3-3-x-3--|


  E E E E E E E E   E E E E E E E E     E E E E E E  E E   E E E E E E  E E
|-1s3-1-3---3---3-|-1-3-1-3-1-3-1-3--|--1s3-1-3---3----3-|-5-7-5-7-5S7S=5S7-|
|-----0-----------|-----0-------0----|------0------------|-----0--------0---|
|-----0-----------|-----0-------0----|------0------------|-----0--------0---|
|-----------------|------------------|-------------------|------------------|
|-----------------|------------------|-------------------|------------------|
|-1S3-x-3-3-3-x-3-|-3-3-x-3-3-3-x-3--|--1S3-x-3-3-3--x-3-|-3-3-x-3-3-3--x-3-|


                                      1.
                             To Coda
  E E E E E E E E   E E E E E E E E   E E E E E E E E   E E E E E E E E
|-1s3-1-3---3---3-|-1-3-1-3---------|-----3---1-------|-----------------|
|-----0-----------|-----0-----------|-------------3---|-----------------|
|-----0-----------|-----0-----------|---0---0---0-----|-2-4-2-4-2-4-2-4-|
|-----------------|-----------------|-3---------------|-----------------|
|-----------------|-----------------|-----------------|-----------------|
|-1S3-x-3-3-3-x-3-|-3-3-x-3-3-1-x-1-|-1-3-3-3-3-3-3-3-|-3-3-3-3-3-1-1-1-|


  E E E E E E E E   E E E E E E E E   E E E E E E E E   E E E E E E E E
|-----3---1-------|-----------------|-----3---1-------|-----------------|
|-------------3---|-----------------|-----0-------3---|-----------------|
|---0---0---0-----|---0---0---0---0-|-0-----------0---|-----------------|
|-3---------------|-3---3---3---3---|-----------------|-----------------|
|-----------------|-----------------|-----------------|-----------------|
|-1-3-3-3-3-3-3-3-|-3-3-3-3-3-1-1-1-|-1S3-x-3-3-3-x-3-|-3-3-x-3-3S1-x-1-|


  E E E E E E E E   E E E E E E E E   E E E E E  E  E E   E E E E E E E E
|-----3---1-------|-----------------|-----3---1-(1)-----|-1-3---1-3-------|
|-----0-------3---|-----------------|-----0---------3---|-----------------|
|-0-----------0---|-----------------|-0---0---------0---|-----------------|
|-----------------|-----------------|---------------0---|-----------------|
|-----------------|-----------------|-------------------|-----------------|
|-1S3-x-3-3-3-x-3-|-3-3-x-3-3S1-x-1-|-1S3-x-3-3--3--x-3-|-3-3-x-3-3S1-x-1-|


  E E E E E E E E   E E E E E E E E
|-----3---1-------|-1-3---1-3--------||
|-----0-------3---|-----------------o||
|-0---0-------0---|------------------||
|-------------0---|------------------||
|-----------------|-----------------o||
|-1S3-x-3-3-3-x-3-|-3-3-x-3-3S1-x-1--||


  2.
  Q   E  +Q.    E  +E    Q   E  +Q.    E  +E
|-6--(6)-(6)---(6)-(6)-|-3--(3)-(3)---(3)-(3)-|
|-7--(7)-(7)---(7)-(7)-|-4--(4)-(4)---(4)-(4)-|
|-7--(7)-(7)---(7)-(7)-|-4--(4)-(4)---(4)-(4)-|
|----------------------|----------------------|
|-6--(6)-(6)---(6)-(6)-|-3--(3)-(3)---(3)-(3)-|
|-----x---------x------|-----x---------x------|


  Q   E  +Q.    E  +E    Q   E  +Q.    E  +E
|-6--(6)-(6)---(6)-(6)-|-3--(3)-(3)---(3)-(3)-|
|-7--(7)-(7)---(7)-(7)-|-4--(4)-(4)---(4)-(4)-|
|-7--(7)-(7)---(7)-(7)-|-4--(4)-(4)---(4)-(4)-|
|----------------------|----------------------|
|-6--(6)-(6)---(6)-(6)-|-3--(3)-(3)---(3)-(3)-|
|-----x---------x------|-----x---------x------|


  E E E E E E E E   E E E E E E E E
|-----------------|-----------------|
|-----------------|-3---------------|
|-0---------------|-----------------|
|-----------------|-----------------|
|-----------------|-----------------|
|-1S3-3-3-3-3-3-3-|-3-3-3-3-3S1-1-1-|


  E E E E E E E E   E +E  E E E E E E   E E E E E E E E   E E E E E E E E
|-----------------|-------------------|-----3---1-------|-----------------|
|-----------------|-------------------|-------------3---|-3---------------|
|-----------------|-------------------|-0-0---0---0-----|-2-4-2-4-2-4-2-4-|
|-3---------------|-------------------|-3---------------|-----------------|
|-----------------|-------------------|-----------------|-----------------|
|-1S3-3-3-3-3-3-3-|-3-(3)-3-3-3S1-1-1-|-1-3-3-3-3-3-3-3-|-3-3-3-3-3-1-1-1-|


                        D.S. al Coda
  E E E E E E E E   E E E E E E E E
|-----3---1-------|---------------------|
|-------------3---|---------------------|
|---0---0---0-----|---0---0---0---0-----|
|-3---------------|-3---3---3---3-------|
|-----------------|---------------------|
|-1-3-3-3-3-3-3-3-|-3-3-3-3-3-1-1-1-----|


  &
   E E E E E E E E   E E E E E E E E   E E E E E E E E   E E E E E E E E
|------3---1-------|-----3---5---1---|-----3---1-------|-8---8---1-3-3----|
|------0-------3---|-----0-------0---|-----0-------3---|-------6----------|
|--0---0-------0---|-0---0-------0---|-0---0-------0---|------------------|
|--------------0---|-----------------|-------------0---|------------------|
|------------------|-----------------|-----------------|------------------|
|--1S3-x-3-3-3-x-3-|-3-3-x-3-3-1-x-1-|-1S3-x-3-3-3-x-3-|-3-3-3-3-3-1-1-1--|


  E E E E E E E E   E E E E E E E E   E E E E E  E  E E   E E E E E E E E
|-----3---1-------|-----3---5---1---|-----3---1-(1)-----|-8---8---1-3-3---|
|-----0-------3---|-----0-------0---|-----0---------3---|-------6---------|
|-0---0-------0---|-0---0-------0---|-0---0---------0---|-----------------|
|-------------0---|-----------------|---------------0---|-----------------|
|-----------------|-----------------|-------------------|-----------------|
|-1S3-x-3-3-3-x-3-|-3-3-x-3-3-1-x-1-|-1S3-x-3-3--3--x-3-|-3-3-3-3-3-1-1-1-|


    E E E E E E E E   E E E E E E E E
||------3---1-------|------------------||-|
||o-------------3---|-----------------o||-|
||--0---------------|------------------||-|
||------------------|------------------||-|
||o-----------------|-----------------o||-|
||--1S3-3-3-3-3-3-3-|-3-3-3-3-3S1-1-1--||-|

 Repeat and Fade
    E E E E E E E E   E E E E E E E E
||------------------|------------------||-|
||o-----------------|-----------------o||-|
||------------------|------------------||-|
||------------------|------------------||-|
||o-----------------|-----------------o||-|
||--1S3-3-3-3-3-3-3-|-3-3-3-3-3S1-1-1--||-|


Duration Legend
---------------
W - whole; H - half; Q - quarter; E - 8th; S - 16th; T - 32nd; X - 64th; a - acciaccatura
+ - note tied to previous; . - note dotted; .. - note double dotted
Uncapitalized letters represent notes that are staccato (1/2 duration)
Irregular groupings are notated above the duration line
Duration letters will always appear directly above the note/fret number it represents the
duration for.  Duration letters with no fret number below them represent rests.  Multi-
bar rests are notated in the form Wxn, where n is the number of bars to rest for.  Low
melody durations appear below the staff

Tablature Legend
----------------
 h   - hammer-on
 p   - pull-off
 b   - bend
 pb  - pre-bend
 r   - bend release (if no number after the r, then release immediately)
 /\  - slide into or out of (from/to "nowhere")
 s   - legato slide
 S   - shift slide
  - natural harmonic
[n]  - artificial harmonic
n(n) - tapped harmonic
 ~   - vibrato
 tr  - trill
 T   - tap
 TP  - trem. picking
 PM  - palm muting
\n/  - tremolo bar dip; n = amount to dip
 \n  - tremolo bar down
 n/  - tremolo bar up
/n\  - tremolo bar inverted dip
 =   - hold bend; also acts as connecting device for hammers/pulls
 <>  - volume swell (louder/softer)
 x   - on rhythm slash represents muted slash
 o   - on rhythm slash represents single note slash

Misc Legend
-----------
 |  - bar
||  - double bar
||o - repeat start
o|| - repeat end
*|  - double bar (ending)
 :  - bar (freetime)
 $  - Segno
 &  - Coda
Tempo markers -  = BPM(8/16=s8/s16), where s8 = swing 8ths, s16 = swing 16ths


***************************************************************************************
* Generated using Power Tab Editor by Brad Larsen - http://powertab.guitarnetwork.org *
***************************************************************************************
Login or Register to remove this ad.