Ads

Black and Blue (Hajime no Ippo) Guitar Tab

Submitted: May 24, 2016 by nelpitin

0
Download | Listen
Game: Hajime no Ippo
Composer(s): Tsuneo Imahori
Style: Transcription

AutoScroll: Slow | Medium | Fast
Title: Black and Blue
Anime: Hajime no Ippo
Composer: Tsuneo Imahori
Tabber: Nelpitin
This tab was made in 14/05/2016

Tuning: DADGBE

E----------------------------
B----------------------------
G----------------------------
D--2--5--4-7--5-8----5---1---
A--2--5--4-7--5-8----5---1---
D--2--5--4-7--5-8----5---1--- x2

E-----------------------------------------
B-----------------------------------------
G-----------------------------------------
D--2-2----2-0-0----0-3--2-2-5-6---0-5-6---
A--2-2----2-0-0----0-3--2-2-5-6---0-5-6---
D--2-2----2-0-0----0-3--2-2-5-6---0-5-6---


E----------------------------
B----------------------------
G----------------------------
D-7-8-9--5---2-2--------2-2--
A-7-8-9--5---2-2--------2-2--
D-7-8-9--5---2-2--------2-2-- x3

then
E------------------------------
B------------------------------
G------------------------------
D--7-8-9-8--7-----------8--7---
A--7-8-9-8--7-----------8--7---
D--7-8-9-8--7-----------8--7---

E-------------------
B-------------------
G-------------------
D--2--3-3--1----2---
A--2--3-3--1----2---
D--2--3-3--1----2---  x8

E--------    -------------------
B--------    -------------------
G--------    -------------------
D---2----    -5-5--2--5-5--1----
A---2----    -5-5--2--5-5--1----
D---2----    -5-5--2--5-5--1---- x4

E--------------------------------------------
B--------------------------------------------
G--------------------------------------------
D--2--5-5---2-5-6-7--2-7--6---5--------5-----
A--2--5-5---2-5-6-7--2-7--6---5--------5-----
D--2--5-5---2-5-6-7--2-7--6---5--------5-----


E------------------------------------------------------
B------------------------------------------------------
G---faster--------hear-the-song-to-catch-the-ryhthm----
D--2-4-5-6-7---3-6-7-8--4-7-3--------------------------
A--2-4-5-6-7---3-6-7-8--4-7-3--------------------------
D--2-4-5-6-7---3-6-7-8--4-7-3-------------------------- x8


E-----------------------------------
B-----------------------------------
G-----------------------------------
D--2--5-5---2-5-6-7--2-7--6---5-----
A--2--5-5---2-5-6-7--2-7--6---5-----
D--2--5-5---2-5-6-7--2-7--6---5-----

E-----------------------
B-----------------------
G-----------------------
D--2-2--3-3--1----2-2---
A--2-2--3-3--1----2-2---
D--2-2--3-3--1----2-2--- x4

E------------------------------------------------------
B------------------------------------------------------
G---faster--------hear-the-song-to-catch-the-ryhthm----
D--2-4-5-6-7---3-6-7-8--4-7-3--------------------------
A--2-4-5-6-7---3-6-7-8--4-7-3--------------------------
D--2-4-5-6-7---3-6-7-8--4-7-3-------------------------- x4

E-----  -------------
B-----  -------------
G-----  -------------
D--2--  --3-3-1-1-2--
A--2--  --3-3-1-1-2--
D--2--  --3-3-1-1-2-- x8

E--------------------
B--------------------
G--------------------
D---2----3-3---1-----
A---2----3-3---1-----
D---2----3-3---1-----



Login or Register to remove this ad.