Ads

Imagination (Haikyuu!!) Guitar Tab

Submitted: Jul 06, 2016 by quinndangle2

5
Average: 5 (4 votes)
Download | Listen
Game: Haikyuu!!
Composer(s): Asami Tachibana, Yuki Hayashi
Style: Arrangement, Fingerstyle

AutoScroll: Slow | Medium | Fast
Imagination
From Haikyuu!!
Originally performed by SPYAIR
Arranged by Brent Quinn

Capo 2 (Switch to Capo 3 at key change)
Standard Tuning (EADGBE Capo 2 = F#BEAC#F#)
Tempo ~ 100

         H.        E   E     E   S  E   E   E   S  S  S  E   E     E   S  E   E   E.   E   E   E
F#|----------------0---0---|-0----------0---2---------0--2---2---|-2----------5---4----0---7---7---|
C#|------------------------|-0------0--------------0-------------|-0------0-------5----0---0---0---|
 A|------------------------|-1------1----------------------------|---------------------------------|
 E|------------------------|-2-----------------------------------|-----1---------------------------|
 B|------------------------|-----2--------------2----------------|-2-------------------------------|
F#|------------------------|-0-----------------------------------|---------------------------------|


    E.   E.   E   E   S  E.   S  S    E   S  E   E   E.   E   E   E     E   S  E   E   E   S  S  S  E   E
F#|-7----5----4---5---4--0----0--2--|-5---5--4---2---0--------0---0---|-0----------0---2---------0--2---2---|
C#|-5-------------4-----------------|-5------5---4---2----0-----------|--------0--------------0-------------|
 A|-6-------------4-----------------|-4-------------------------------|-1------------------1----------------|
 E|---------------4-----------------|---------------------2-----------|-------------------------------------|
 B|-4-------------2-----------------|-0-------------------------------|-----2-------------------------------|
F#|---------------------------------|---------------------------------|-0--------------0--------------------|


    E   S  E   E   E   S  E   E   E     E.   E.   E   E   S  E.   S  S    E.   E.   E   E   E   E   E
F#|-2----------5---4------0---7---7---|-7----5----4---5---4-------------|-5----4----2-----------5---4---|
C#|-0------0-----------0------0-------|-5-------------4------5----5--7--|-5-------------5---4---5-------|
 A|-----------------------------------|-6-------------4-----------------|-4-------------4-------4-------|
 E|-----1-----------------------------|---------------4-----------------|-------------------------------|
 B|-2--------------2------------------|-4-------------------------------|-0-----------------------------|
F#|-----------------------------------|---------------------------------|---------------4-------4-------|


    E.   E.   E   S  E   S  E   S  S    E   S  S  E   E   E   E   S  S  S  S    E.   E.   E   S  E   S  E   S  S
F#|------0--------4--2---4--2---4--2--|-L---0--L--0---2---4---2---2--0--------|------0--------4--2---4--2---4--2--|
C#|------0----0---5--4---5--4---------|---------------0---L-------------4--2--|------0----2---5--4---5--4---------|
 A|------2----------------------------|---------------------------------------|-----------------------------------|
 E|------2----------------------------|--------4--L---------------------------|------2----------------------------|
 B|-0---------------------------------|-2-------------------------------------|-0---------------------------------|
F#|-----------------------------------|---------------------------------------|-----------------------------------|

				    TS.15/16|Capo 3| TS.4/4
    E   S  S  E   Q    E   E   E     H.     S  E     E.   E   S  E   E.   E   S  E
F#|-----0-----0--------------------|-2-------------|------0---------------0----------|
C#|-----0-----0---4----0-----------|-2------1--1---|-3--------1--1---3--------1--1---|
 A|---------------4----------------|-1-------------|-0--------0------0--------0------|
 E|------------------------4-------|---------------|-2--------2----------------------|
 B|-2------2-------------------2---|---------------|-3---------------2---------------|
F#|--------------------------------|---------------|---------------------------------|


    E   E   E   E   E   S  E   S  E     E   S  E   S  E   E   S  E   E   S    E   S  S  S  S  E   E   S  S  S  S  E
F#|-1---0-----------------------------|--------0----------1------0----------|-----------------------------------------|
C#|---------3---1---3------1---0-h1---|-3------1---1--1---3------1---1---1--|-1------------0-h1---3------------1--1---|
 A|-2-------2-------0------0---0------|-2----------0------0----------0------|-2------0--2---------0------0--2---------|
 E|-2-------------------2-------------|-3----------2----------2-------------|-3-------------------0-------------------|
 B|-0---------------------------------|-----3-------------------------------|-----3-------------------0---------------|
F#|-----------------0-----------------|-1-----------------0-----------------|-1-------------------3-------------------|


    E   S  E   S  E   E   S  E   S  E     E   E   E   E   E   S  E   S  S  S    E   E   E   E   E   E   E   E
F#|--------0-----------------0----------|-1---0----------------------1--1--1--|-1---0---------------------------|
C#|-3------1---0-h1---3------1---1--1---|-3-------3---1---3------1---1--------|-1-------3---1---0---1---3---0---|
 A|-0------0----------0----------0------|-0-------0-------0---0---------------|-2-------2-------0-------0-------|
 E|-2---2-------------0---0-------------|-2---------------2-------------------|-----------------0-------0-------|
 B|-0-----------------2-----------------|-3-----------------------------------|---------------------------------|
F#|-------------------------------------|-----------------0-------------------|-1---------------3---------------|


    E   S  S  E   E   E   S  E   E   S    E.   E.   Q.    S  E     E.   E   E.   E.   E   E. 
F#|-------------------------------------|-0----0----0------------|------0-------------0--------|
C#|-1---1-----1---1---4------4---4---0--|-5----5----5-----1--1---|-3--------1----3--------1----|
 A|-1---------1---1-------4------4------|-5----5----5------------|-0--------0----0--------0----|
 E|--------1-----------------4----------|------------------------|-2--------2------------------|
 B|-------------------2-----------------|-3----3----3------------|-3-------------2-------------|
F#|-4-----------------------------------|------------------------|-----------------------------|


    E   E   E   E   E   S  E   S  E     E   S  E   S  E   E   S  E   E   S    E   S  S  S  S  E   E   S  S  S  S  E
F#|-1---0-----------------------------|--------0----------1------0----------|-----------------------------------------|
C#|---------3---1---3------1---0-h1---|-3------1---1--1---3------1---1---1--|-1------------0-h1---3------------1--1---|
 A|-2-------2-------0------0---0------|-2----------0------0----------0------|-2------0--2---------0------0--2---------|
 E|-2-------------------2-------------|-3----------2----------2-------------|-3-------------------0-------------------|
 B|-0---------------------------------|-----3-------------------------------|-----3-------------------0---------------|
F#|-----------------0-----------------|-1-----------------0-----------------|-1-------------------3-------------------|


    E   S  E   S  E   E   S  E   S  E     E   E   E   E   E   S  E   S  S  S    E   E   E   E   E   E   E   E
F#|--------0-----------------0----------|-1---0----------------------1--1--1--|-1---0---------------------------|
C#|-3------1---0--1---3------1---1--1---|-3-------3---1---3------1---1--------|-1-------3---1---0---1---3---0---|
 A|-0------0----------0----------0------|-0-------0-------0---0---------------|-2-------2-------0-------0-------|
 E|-2---2-------------0---0-------------|-2---------------2-------------------|-----------------0-------0-------|
 B|-0-----------------2-----------------|-3-----------------------------------|---------------------------------|
F#|-------------------------------------|-----------------0-------------------|-1---------------3---------------|

					 TS.15/16                 TS. 4/4
    E   S  S  E   E   E   S  E   E   S    E.   E.   Q.    S  E     E.   E   S  E   E.   E   S  S  S
F#|-------------------------------------|-0----0----0------------|------0---------------3---1--0-----|
C#|-1---1-----1---1---4------4---4---0--|-5----5----5-----1--1---|-3--------1--1---3--------------3--|
 A|-1---------1---1-------4------4------|-5----5----5------------|-0---------------0-----------------|
 E|--------1-----------------4----------|------------------------|-2---------------0-----------------|
 B|-------------------2-----------------|-3----3----3------------|-3---------------2-----------------|
F#|-4-----------------------------------|------------------------|-----------------------------------|

    E.   E   S  S  S  E   S  E   S  E     E   S  E   S  E   S  E   S  E   S  S    E.   E   S  E   E   S  S  S  S  S  S     
F#|-0-----------------------------------|---------------------------------------|------8---7------0------0--3--8-----0--|
C#|-1----3---1--0--3------1--0----------|-1---------------------------0---0--1--|-1-----------8---0---3-----------8-----|
 A|-0-----------------0----------2--4---|-2-------------0---0--2---2------------|-2-------------------------------------|
 E|-2-----------------2-----------------|-----2--3---3---------2----------------|---------------------------------------|
 B|-0-----------------2-----------------|-3--------------------2----------------|---------------------------------------|
F#|-------------------0-----------------|-1--------------------0----------------|-1---------------3---------------------|

    E.   E.   E   E   Q.
F#|-8----8----8---8---------|
C#|-8----8----8---8---------|
 A|-------------------------|
 E|-------------------------|
 B|-------------------------|
F#|-8----L----L---8---------|



Login or Register to remove this ad.

2 comments on Imagination

This is nice =) On a side

5

This is nice =)

On a side note, I think it's normal practice to leave the tuning indication as if there was no capo, so leave it as EADGBE and say capo fret 2, because the capo is supposed to be just an extra finger to barre with. The capo doesn't effect the way one tunes the guitar. This is especially evident when a song has you switch capo positions half way through. I know of a few songs that shift the capo like 4 or 5 times, it would be annoying to have to rewrite the tuning at the start of each line to match the capo.

Great song I'm gonna play it a little more now =)

Cheers Nate glad you enjoyed

Cheers Nate glad you enjoyed it! Yep i mucked up with the tunings, i played around with them once i had the correct melody/bass notes tabbed out to see which fret worked best with a capo. once i got to the end and rewrote the second half (first file for txt output, second for accurate midi) i lost the will to go back and edit it all again to sound and display right :'( even worse was a few days later i discovered you could change tunings without transposing on Tuxguitar too... bad times haha