Ads

Free Bird (Haibane Renmei) Guitar Tab

Submitted: Oct 15, 2011 by N0Stars

5
Average: 5 (2 votes)
Download | Listen
Game: Haibane Renmei
Composer(s): Kow Otani
Style: Arrangement, Fingerstyle

This song is also called Opening Theme

AutoScroll: Slow | Medium | Fast
#----------------------------------PLEASE NOTE---------------------------------#
#This file is the author's own work and represents their interpretation of the #
#song. You may only use this file for private study, scholarship, or research. #
#------------------------------------------------------------------------------##

Haibane Renmei - Free Bird (Opening)

Composed by Koh Otani

Arranged by NorthStar

Gtr I (D G D G B E) - 'Untitled'

    Q=100
 6/8
    Gtr I
    E Q  E   E E E E E E   E E E E E E   E E E E E E   E E E E E E
|----------|-------------|-----------0-|-------------|---------5-3--|
|----------|-0-----0-0-1-|-3-----3-3---|-6-----5-----|-3------------|
|---0-0--2-|-2-----------|-2-----------|-4-----------|-5------------|
|----------|-0---0-----0-|-------------|-5---0-----0-|-----------0--|
|----------|-0-4---0-4---|-----2-----2-|-0-4---0-4---|---5-7---5----|
|----------|-------------|-0-3---0-3---|-------------|-3-----3------|
  Q


  E E E E E E   E E E E E E   E E E E E E   E E E E E E
|---------5-3-|---------5-3-|-------------|----------------|
|-3-----------|-3-----------|-6---5-3---5-|-3--------------|
|-0-----------|-2-----------|-4-----4-5---|-2-----0-0-2----|
|-0---0-----0-|-------------|-----0-----0-|----------------|
|-0-4---0-4---|-----2-----2-|-0-4---0-4---|-----2-----2----|
|-------------|-0-3---0-3---|-------------|-0-3---0-3------|


                                                |--3---|
  Q  S S E E E   Q  S S E E E   Q  S S Q  S S   E  E   E  S S E E E
|--------------|------------0-|---------------|-----------------5-3---|
|-0--0-0-0-0-1-|-3--3-3-3-3---|-6--6-6-5--5-5-|-3h=5p==3--3-3-3-------|
|-2--2-2-------|-2--2-2-------|-4--4-4-4--4-4-|-5-(5)-(5)-5-5---------|
|-0--0-0-----0-|-0--0-0-------|-5--5-5-5--5-5-|-3-(3)-(3)-3-3-----0---|
|-0--0-0-0-4---|-2--2-2-----2-|-0--0-0-0--0-0-|-5-(5)-(5)-5-5---5-----|
|--------------|-0--0-0-0-3---|---------------|-3-(3)-(3)-3-3-3-------|


  Q  S S E E E   Q  S S E E E   E E E E E E    E  E  E  E  E  E
|-5--5-5---5-3-|-5--5-5---5-3-|-5-----7-----|--8-------10----12----|
|-3--3-3-------|-3--3-3-------|-3-----8-----|----------------10----|
|-4--4-4-------|-2--2-2-------|-------7-----|-10----------10-------|
|-0--0-0-----0-|-0--0-0-----0-|-3-3-3-7-7-7-|-10-10-10-12----------|
|-0--0-0-0-4---|-x--x-x-0-4---|-------------|----------------------|
|--------------|-0--0-0-------|-------------|----------------------|


   E  E  E  E  E  E    E E E   E E E    E  E  E E E E   E E E Q  S  S
|-13-------12-------|-10-------8---8-|-10-------5-----|-5-------10h12----|
|-------------------|----8-8-----8-8-|----10-10-----8-|---6-6-5----------|
|----10-10----10-10-|----9-9-----9-9-|----10-10---7-7-|---5-5-5----------|
|----12-12----12-12-|----------------|------------8-8-|------------------|
|-------------------|----------------|--7-------------|------------------|
|--8--------8-------|-10------10-----|----------5-----|-7-----7----------|


   E  E  E  E  E  E    E E  E  E E E   E  E E E E E   E  E E  E  E  E
|-13-------12-------|-10-------8---8-|-6------5-----|--------------12----|
|-------------------|----8--8----8-8-|-6-10-8-5-8-6-|-8---------10-------|
|----10-10----10-10-|----9--9----9-9-|-7------5-----|-7-10-9-10----------|
|----12-12----12-12-|----------------|--------------|--------------------|
|-------------------|----------------|--------------|--------------------|
|--8--------8-------|-10------10-----|-8------7-----|-8------10----------|


   S  S  S  S  S  S  S  S  S  S  S  S
|-13----------------12----------------|
|-------11----11----------11----11----|
|----10----10----10----10----10----10-|
|-------------------------------------|
|-------------------------------------|
|--8-----------------8----------------|


   S  S  S  S  S  S  S  S  S  S  S  S    S  S  S  S  S  S  S S S S S S
|-10----------------------------------|-10-----------------5-----------|
|-------13----13----13----------13----|-------10----10-------------8---|
|----12----12----12-------12----12----|----10----10----10------7-------|
|----------------------10----10----10-|----------------------5---5-----|
|-------------------------------------|--7---------------------------5-|
|-10----------------10----------------|--------------------5-----------|


  E E E Q   S  S    S  S  S  S  S  S  S  S  S  S  S  S
|-5--------10h12-|-15----------------13----------------|
|---6-6-5--------|-13----------------13----------------|
|---5-5-5--------|-------------------------------------|
|----------------|-------10----10----------10----10----|
|----------------|----12----12----12----12----12----12-|
|-7-----7--------|-10----------------10----------------|


   S S S S S S  S S S S S S
|-12-----------10-------8----|
|-10-----------10------------|
|------7---7--------7---7----|
|----7---7---7----7---7---7--|
|--7------------7------------|
|----------------------------|


   E E E E  E E    E E E  E  E E   E E E E E E   E E E E  E S  S
|-10------------|----------------|-------------|-----------------|
|--------8------|-10-------------|-3-----------|--------------10-|
|-10-9-7---10-9-|-10-9-7-12-10-9-|-------0-----|-2-----0---------|
|--0------------|----------------|-3-2-0---3-2-|-3-2-0-----------|
|--------0------|----------------|-------0-----|---------10-9----|
|---------------|--0------0------|-0-----------|-0-----0---------|


   E E  E  E  E  E    E E E E E  E    E E E E E  E    E E E E E  E
|-14------------14-|-12---------12-|-11---------11-|-10---------------|
|-10------10-------|--9-----9------|--8-----8------|--------7---10----|
|-11---11----11----|--9---9---9----|--8---8---8----|------7---7-------|
|--0-0-----------0-|--9-9--------9-|--8-8--------8-|----0--------0----|
|------------------|---------------|---------------|------------------|
|------------------|---------------|---------------|--0---------------|


   E  S  S  E  E  E  E    E E  E E E  E
|-14----------------14-|-12----------12-|
|-10----10----10-------|--9------9------|
|-11-11----11----11----|--9----9---9----|
|--0-----------------0-|--9-9---------9-|
|----------------------|----------------|
|----------------------|----------------|


   E E E E  E  E    E E E E E  E    H.
|-11----------11-|-10------------|-10-----|
|--8-----8-------|----------7-10-|--------|
|--8---8----8----|--------7------|--------|
|--8-8---------8-|------7--------|--------|
|----------------|----7----------|--------|
|----------------|--0------------|--------|


Duration Legend
---------------
W - whole; H - half; Q - quarter; E - 8th; S - 16th; T - 32nd; X - 64th; a - acciaccatura
+ - note tied to previous; . - note dotted; .. - note double dotted
Uncapitalized letters represent notes that are staccato (1/2 duration)
Irregular groupings are notated above the duration line
Duration letters will always appear directly above the note/fret number it represents the
duration for.  Duration letters with no fret number below them represent rests.  Multi-
bar rests are notated in the form Wxn, where n is the number of bars to rest for.  Low
melody durations appear below the staff

Tablature Legend
----------------
 h   - hammer-on
 p   - pull-off
 b   - bend
 pb  - pre-bend
 r   - bend release (if no number after the r, then release immediately)
 /\  - slide into or out of (from/to "nowhere")
 s   - legato slide
 S   - shift slide
  - natural harmonic
[n]  - artificial harmonic
n(n) - tapped harmonic
 ~   - vibrato
 tr  - trill
 T   - tap
 TP  - trem. picking
 PM  - palm muting
\n/  - tremolo bar dip; n = amount to dip
 \n  - tremolo bar down
 n/  - tremolo bar up
/n\  - tremolo bar inverted dip
 =   - hold bend; also acts as connecting device for hammers/pulls
 <>  - volume swell (louder/softer)
 x   - on rhythm slash represents muted slash
 o   - on rhythm slash represents single note slash

Misc Legend
-----------
 |  - bar
||  - double bar
||o - repeat start
o|| - repeat end
*|  - double bar (ending)
 :  - bar (freetime)
 $  - Segno
 &  - Coda
Tempo markers -  = BPM(8/16=s8/s16), where s8 = swing 8ths, s16 = swing 16ths


***************************************************************************************
* Generated using Power Tab Editor by Brad Larsen - http://powertab.guitarnetwork.org *
***************************************************************************************
Login or Register to remove this ad.

5 comments on Free Bird

whoa, nice, i love that song~

whoa, nice, i love that song~

Yeah, that show had a great

Yeah, that show had a great soundtrack. I might try tabbing something else from it in the future.

I love that show Great tab

I love that show Great tab

im super happy to find it

5

im super happy to find it

Thanks. I'm glad you enjoyed

Thanks. I'm glad you enjoyed it.