Ads

Blue Flow (Haibane Renmei) Guitar Tab

Submitted: Mar 08, 2015 by Roxas520

5
Average: 5 (2 votes)
Download | Listen
Game: Haibane Renmei
Composer(s): Kow Otani
Style: Transcription

AutoScroll: Slow | Medium | Fast
Blue Flow
Haibane Renmei
Composer: Heart of Air
Tab by Roxas520
03/07/15

Standard Tuning
4/4 beat
Tempo: 160

This tab may be played as is with a single guitar, or be split into a duet;
played as a duet, the second guitar comes in at the *, playing the high notes.
(If so desired when playing solo, one may choose either the low or high notes,
 as they are just differing octaves.)

e|---------------------------------------------------------------------------|
B|---------------------------------------------------------------------------|
G|--------------------------------------------------------------5------------|
D|----8---------7---------8---------7--------8----7------5-7-8-----7----5----|
A|-6---------6---------6---------6-------------------------------------------|
E|---------------------------------------------------------------------------|

e|---------------------------------------------------------------------------|
B|---------------------------------------------------------------------------|
G|--------------------5---------------------------7----5---------------5-----|
D|-8----7------5-7-8-----5----4-----------4--5--------------7--5-------------|
A|-------------------------------------7--------------------------8----------|
E|---------------------------------------------------------------------------|

e|---------------------------------------------------------------------------|
B|------------------------------------------10-------------------------------|
G|-----------------------------5--------------------------------------5------|
D|-8------8--7--5------7--8---------7-(hold 8 beats)-8--7------5-7-8-----7---|
A|---------------------------------------------------------------------------|
E|---------------------------------------------------------------------------|

e|---------------------------------------------------------------------------|
B|---------------------------------------------------------------------------|
G|----------------------------------5---------------------------7----5-------|
D|-5----x--------8----7------5-7-8-----5----4----x------4--5--------------7--|
A|---------------------------------------------------7-----------------------|
E|---------------------------------------------------------------------------|
                                                                 *
e|---------------------------------------------------------------7-----8-----|
B|---------------------------------------------------------------------------|
G|---------5----------------------5------------------------------------5-----|
D|-5------------8--------5--7--8-----7-------5--5-(hold 8 beats)-9-----------|
A|----8-----------------------------------8----------------------------------|
E|---------------------------------------------------------------------------|

e|---------7--8----10-7--7----------7----------------------------------------|
B|-10---10--------------------8--10------8----5----8----8----7--8--10---8--10|
G|------------5----7---------------------------------------------------------|
D|-7----7--9----------9--9----5--7--9----5---------5----5----4--5--7----5--7-|
A|--------------------------------------------7------------------------------|
E|---------------------------------------------------------------------------|

e|-7----8------------7--8----10-7--7----------7--------------------7---------|
B|-----------10---10--------------------8--10----8--5--------8--10----8---5--|
G|------5---------------5----7-----------------------------------------------|
D|-9---------7----7--9----------9--9----5--7--9--5-----------5--7--9--5------|
A|--------------------------------------------------7---------------------7--|
E|---------------------------------------------------------------------------|

e|---------------------------------------------------------------------------|
B|-8----8-(hold 8 beats)-x---------------------------------------------------|
G|---------------------------------------------------------------------------|
D|-5----5-(hold 8 beats)-x---------------------------------------------------|
A|---------------------------------------------------------------------------|
E|---------------------------------------------------------------------------|
Login or Register to remove this ad.