Ads

Say Goodbye (.hack//Sign) Guitar Tab

Submitted: Apr 05, 2016 by MechaKrauser

5
Average: 5 (4 votes)
Download | Listen
Game: .hack//Sign
Composer(s): Yuki Kajiura
Style: Arrangement, Fingerstyle

AutoScroll: Slow | Medium | Fast
Say Goodbye
from .Hack//Sign
music by Yuki Kajiura
tab by MechaKrauser

Standard tuning, capo on 1
2/4 time, 82bpm

*Thmb = Fret E-string with thumb over top of fret board


     Q    E  E     E  E  E  E     E  E  E  E     E  E  Q       E  E  E  E     E  E  E  E   
E||-------------|--------------|--0-----2--0--|-------------|--------------|--------------|
B||-------------|--3-----2--3--|--------------|--3-----2----|--3--------2--|--0-----2--0--|
G||----------4--|--------------|--------------|-------------|--------2-----|--------------|
D||-------4-----|-----4--------|-----0--------|-----2-------|-----4--------|-----0--------|
A||-------------|--2-----------|--------------|--0----------|--5-----------|--------------|
E||-------------|--------------|--3-----------|-------------|--------------|--3-----------|


  E  E  E  E     E  E  Q       E  E  E  E     E  E  E  E     E  E  E  E     E  E  Q     
--------------|-------------|--------------|--------------|--0-----2--3--|--3-----2----|
--------------|-------------|-----------0--|--3-----2--3--|--------------|-------------|
--3-----0--2--|--0----------|--------------|--------------|--------------|-------------|
-----2--------|--------4----|--L-----4-----|-----4--------|-----0--------|-----2-------|
--0-----------|--2--2-------|-----5--------|--2-----------|--------------|--0----------|
--------------|-------------|--------------|--------------|--3-----------|-------------|


  E  E  E  E     E  E  E  E     E  E  Q       E  E  Q       Q    E  E     E  E  E  E   
--------------|--------------|-------------|-------------|-------------|--------------|
--3--------2--|--0-----2--0--|--------2----|--2----------|-------------|--3-----2--3--|
--------2-----|--------------|--3----------|--------4----|--L-------4--|--4-----4-----|
-----4--------|-----0--------|-----2-------|-----4-------|-------4--4--|-----4--------|
--5-----------|--------------|--0----------|--2----------|-------------|--2-----------|
--------------|--3-----------|-------------|-------------|-------------|--------------|


  E  E  E  E     E  E  E  E     E  E  E  E     E  E  E  E     E  E  Q       E  E  E  E   
--0-----2--0--|--------------|--------------|--------------|-------------|--------------|
--0-----------|--3-----2-----|--3--------2--|--0-----2--0--|-------------|-----------3--|
--------0-----|--2-----2-----|--2-----2-----|--0-----0-----|--3-----0----|--0-----------|
-----0--------|-----2--------|-----4-----4--|-----0--------|-----2-------|--------4-----|
--------------|--0--------0--|--5-----------|--------------|--4-----4----|--2--2--------|
--3-----------|--------------|--------------|--3-----------|--5----------|--------------|


  E  E  E  E     E  E  E  E     E  E  E  E     E  E  E  E     E  E  E  E     E  E  E  E   
--0-----------|--------------|--0-----2--3--|--3-----2-----|--------------|--------------|
-----------0--|--3-----2--3--|--0-----------|--------2-----|--3--------2--|--0-----2--0--|
--------------|--4-----4-----|--------0-----|--2-----------|--2-----2-----|--0-----0-----|
--------4-----|-----4--------|-----0--------|-----2--------|-----4-----4--|-----0--------|
-----5--------|--2-----------|--------------|--0--------0--|--5-----------|--------------|
--6-----------|--------------|--3-----------|--------------|--------------|--3-----------|


                                               *Thmb                          *Thmb
  E  E  E  E     E  E  E  E     E  E  E  E     E  E  E  E     E  S S E  E     E  E  E  E   
--------------|--------------|--2--0--------|--5-----------|------------0--|--5-----------|
--------2-----|--2--------3--|--------3-----|--3--------0--|--2--L-3-L--0--|--3-----3-----|
--3-----------|--------4-----|--4--------4--|--------0-----|--0--L-2-L-----|--------0-----|
-----2-----2--|-----4--------|--------------|-----0--------|---------------|-----0-----0--|
--4-----4-----|--2-----2-----|--------2--L--|--------------|---------------|--------------|
--5-----------|--------------|--------------|--3-----------|--3------------|--3-----------|


  E  E  E  E     E  E  E  E     E  S S E  E     E  E  Q       Q    Q       E  E  E  E   
--------------|--------------|---------------|-------------|------------|--------------|
--------------|-----2--3--2--|---------------|-------------|------------|-----3--2--3--|
-----0-----0--|--------2-----|--2--L-0-L-----|-------------|------------|--------0-----|
--------0-----|-----2--------|------------4--|--2-----4----|------------|-----0--------|
--------------|--0-----------|--0------------|--4-----5----|--4---------|--------------|
--3-----------|--------------|---------------|-----5-------|-------5----|--3-----------|


  E  S S E  E     E  E  E  E     E  E  E   E     E  E  Q       E  S S E  E     E  S S E  E   
---------------|--5-----3-----|--------0------|--2----------|--0--L---------|--3--L---------|
--0--L-2-L--3--|--------0-----|---------------|-------------|---------------|---------------|
--0--L-2-L--4--|--0-----0-----|--0------------|-------------|--3--L---------|--0--L---------|
---------------|-----2-----2--|-----4--2h--4--|--5-----4----|--2--L---------|---------------|
---------------|--------------|---------------|-----2-------|-------4-L--2--|--1--L---------|
--3------------|--0-----------|--2-----3------|--2----------|---------------|-------3-L--2--|


  Q    E  E     E  E  E  E     E  E  E  E     E  E  E  E     E  E  E  E     E  E  E  E   
--2----------|--------------|--------------|--------0--3--|--3-----2-----|-----0--2--0--|
-------------|--3-----------|-----------0--|-----2--------|--------3-----|--------------|
----------4--|--4--------4--|--0-----2-----|--2-----------|--2-----------|-----------0--|
--4----4-----|-----4-----4--|--0-----------|--2-----2-----|-----4-----2--|--------0-----|
-------------|--2-----2-----|-----2--------|--0-----------|--5-----------|-----2--------|
--2----------|--------------|--3-----3-----|--------------|--------------|--3-----------|


  E  E  E  E     E  E  Q       E  E  E  E     E  E  E  E     E  E  E  E     E  E  E  E   
--------------|--0-----2----|--------------|--------------|--0-----2--3--|--3-----2--0--|
--3-----2--3--|-------------|--2--------2--|--3-----2--3--|--0-----------|--------2-----|
--2-----0-----|--------2----|-----4--3--3--|--4-----4-----|--------0-----|--2-----------|
-----2--------|-----4-------|--2-----2-----|-----4--------|-----0--------|-----2--------|
--0-----------|--5----------|--4-----------|--2-----------|--------------|--0-----------|
--------------|-------------|--------------|--------------|--3-----------|--------------|


  E  E  E  E     E  E  E  S  S    E  E  E  E     E  E  Q       E  E  E  E     E  E  Q     
--2--------0--|----------------|--------------|-------------|-----------0--|--0-----2----|
--------------|--3-----3--2p-0-|--------2-----|--2----------|-----2--3-----|--------3----|
--2-----2-----|--0-----0-------|--3-----------|--4-----4----|--4-----------|--4-----4----|
-----4-----4--|-----0----------|-----2-----2--|-----4-------|--------------|-----4-------|
--5-----------|----------------|--4-----4-----|--2----------|--------------|--2----------|
--------------|--3-------------|--5-----------|-------------|--------------|-------------|


  *rall---->60bpm
                        ^                  
  E  E   E  E     Q     Q       H          
--0--2------9--|--L----10----|--L--------||
--------10-----|--------0----|--L--------||
---------------|-------11----|--L--------||
---------------|--------9----|--L--------||
--2------9-----|-------------|-----------||
---------------|-------------|-----------||




Duration Legend
---------------
W - whole
H - half
Q - quarter
E - 8th
S - 16th
T - 32nd
X - 64th
. - note dotted
|-n-|  - n-tuplets


Tablature Legend
----------------
L - tied note
x - dead note
g - grace note
(n) - ghost note
> - accentuded note
NH - natural harmonic
AH - artificial harmonic
TH - tapped harmonic
SH - semi harmonic
PH - pitch harmonic
h - hammer on
p - pull off
b - bend
br - bendRelease
pb - preBend
pbr - preBendRelease
brb - bendReleaseBend
\n/ - tremolo bar dip
\n - tremolo bar dive
-/n - tremolo bar Release up
/n\ - tremolo bar inverted dip
/n - tremolo bar return
-\n - tremolo bar Release down
S - shift slide
s - legato slide
/ -  slide into from below or out of upwards
\ -  slide into from above or out of downwards
~ - vibrato
W - wide vibrato
tr - trill
TP - tremolo picking
T - tapping
S - slap
P - pop
< - fade in
^ - brush up
v - brush down
Login or Register to remove this ad.

5 comments on Say Goodbye

This is gorgeous. One of my

5

This is gorgeous. One of my favorite tabs of yours in recent memory.

Loved it!

Loved it!

Very nice!

5

I've had this song in my instrumental music collection for years and never bothered to see what OST it came from, but remembered the piece immediately from the midi c:

Thanks

Thanks, all. It was actually judei who pointed this song out to me and wanted a tab for it. I was conflicted on picking some notes to play and others to omit, in order to keep the tab from being muddled.

Thank You Very Much!

5

Big thanks to Mechakrauser for taking my request and hslesperance for sending and informing me for a tab, hope you take my request again someday! you guys and this tab are so cool