Ads

Fake Wings 1 (.hack//Sign) Guitar Tab

Submitted: Feb 02, 2013 by KAT

5
Average: 5 (6 votes)
Download | Listen
Game: .hack//Sign
Composer(s): Yuki Kajiura
Style: Arrangement, Fingerstyle

AutoScroll: Slow | Medium | Fast
This tabulature is based on Ichigo`s sheet music. I made some corrections and tabulature for other arrangement of this song.

I know two arrangements of Fake Wings, so I made tabs for both of them.
Track titled 'Arrangement 1' is for the original version which can be found here: http://youtu.be/XBA9stRJ6EI.
The other track, titled "Arrangement 2" is for the second arrangement of that song, and can be found here: http://youtu.be/LL-IuljULJ4.

Both tracks sounds awesome when you play them in the same time, so I decided to put them together in one tabulature, check the zip.


     ^                            ^                    ^     ^          
     Q                     E  S S Q    E  S S    E  E  E  E  E  Q.      
E||--5--------------------------5-3----0--1-3-|--1-----0--------5------|
B||--6---------------------6--8---1-----------|-----3-----1--3--6------|
G||-------------------------------2-----------|-----3--------2---------|
D||--0----------------------------------------|-----------2--0---------|
A||-------------------------------------------|--1-----3---------------|
E||-------------------------------------------|------------------------|


  ^           ^                    ^   ^   ^  ^       
  Q    E  S S Q    E  S S    E  E  S S S S E  Q.      
--5---------5-3----0--1-3-|--1-----0---1-0-0---------|
--6----6--8---1-----------|-----3------1------3------|
--------------2-----------|-----3------0---2--2------|
--0-----------------------|----------2-----0--3------|
--------------------------|--1-----3-----------------|
--------------------------|--------------------------|


   00:19                                                             
                               ^                ^             ^      
   S     S  E  S S S  S S S E  E  S S    S S E  E  S S S S E  E  E   
--10-----------6---8-10-8------5--6-8-|--6---5--3--1-3-0------1--3--|
-----------11---------------6--6------|---------3----------3--2-----|
--------10---------7------------------|----3------------------0-----|
---8----------------------7----0------|--5---------------3----------|
-----------------8------8-------------|---------0------1------0-----|
---------------6----------------------|-----------------------------|


                                  00:33                           
  ^                                          ^   ^      ^     ^   
  S S E  E  S S S S S S E  S S    S     S E  S S S S E  E  E  E   
--5---1--1--3-5-3-------0--1-3-|--1----------0---1-0-0-----------|
----3-----------------1--------|----------3------1------3-----1--|
--------------------0----------|--------3--------0------3--------|
--0---------------2------------|---------------2--------------2--|
----------------0--------------|--1----------3-------------0-----|
-------------------------------|---------------------3-----------|


  ^                                                ^            
  E  E  E  E  S S S S S S S S    T  T S S S E  S S E  E  E  E   
--------5-----------0-3-----3-|--1p-0-1-----0--1---0-----0-----|
--3---------------1-------1---|-----------3------3-1--1--------|
----------------0-------0-----|---------2----------0--------0--|
--0--3-----3--0---------------|--0-----------------0-----------|
------------------------------|--------------------------------|
------------------------------|--------------------------------|


  00:48                                                         
  E     E  E  E  S S S S E  E     S S E  E  E  S S S S S S S S  
-----------1-------------0-----|---------0-----------0-1-0-----|
--------------3--------1----1--|------3-----1------3-------3---|
--------2------------0---------|------3-----0----2-----------2-|
--0----------------2-----------|----3-------2--0---------------|
-----------------0-------------|--1------3---------------------|
-------------------------------|-------------------------------|


  00:57                                                            
  S     S S S E  E  S S S S E  E     S S E  S S E  S S S S S S E   
--------------1-----0-----3-0-----|---------0----------1-0-1-0----|
----------3------3------1---------|------3------1--------------3--|
--------2---2------------------0--|------3------0----2------------|
--0-------------------2-----------|----3------2----0--------------|
--------------------0-------------|--1------3---------------------|
----------------------------------|-------------------------------|


  01:07                                                              
                                                               ^     
  S     S S S S S S S S S S S E  S S    S S S S S S S S S S E  Q     
------------------------------1------|------------------------------|
----------3-------3--------------1---|------3-------2-------3--2----|
------------3---3---3-------2--------|------3-------0-------3-------|
--------3-----3-----------3--------3-|----3-------2---2---3----2----|
--1---------------------3------------|----------0-------1------0----|
----------------------1--------------|--3-----3---------------------|


  01:17                                                            
        ^             ^                                            
  E     S S E  E  S S S S S S S S    S S E  S S S S S S S S E  E   
--------1-0-1---------0---0-------|---------0---------------------|
--------3------3------1-3-1-1-----|------3------1--------------1--|
--------2-------------0-------0---|------3--------0-----3------0--|
--0-----------------2-------------|----3------2-------3---3----2--|
------------------0-------------0-|--1------3---------------0-----|
----------------------------------|-----------------3-------------|


  01:27                                                             
        ^                                              ^            
  E     S S S S E  E  S S S S S S    T  T S S S E  S S E  E  E  E   
--------1-0-1---------0-3-3---1-0-|--1p-0-1-----0--1---0-----------|
--------3-------3-----------------|-----------3------3-1--3--1-----|
--------2-----2-------------0-----|---------2----------0--------0--|
--0----------------0--------------|--0-----------------0-----------|
----------------------------------|--------------------------------|
----------------------------------|--------------------------------|


  01:36                                                                 
        ^                                                               
  E     S S S S S S S S S S S S S S    S S S S S S S S S S S S S S S S  
--------1-0-1---------------5-------|----------0-------------0-1-0-----|
--------3-------3---------5---5-----|------3-------1-------3-------3---|
--------2-----2---2-----5-------5---|--------3-------0---2-----------2-|
--0-------------------5-------------|----3-------2-----0---------------|
--------------------0-------------0-|--1-------3-----------------------|
------------------------------------|----------------------------------|


  S S S S S S S S S S S S S S S S    S S S S S S S S S S S S S S S S  
------1-0-1-----------0---0-------|----------0-------------0-1-0-----|
--------------3-----1---1---1-----|------3-------1-------3-------3-1-|
----2-------2---2-------------2---|--------3-------0---2-------------|
--0-------------------------------|----3-------2-----0---------------|
------------------0-------------0-|--1-------3-----------------------|
----------------------------------|----------------------------------|


  01:55                                                                  
  S     S S S S S S S S S S S S S S S    S S S S S S S S S S S S S S E   
------------------------------1-------|------------------------------0--|
----------3-------3-------------1-----|------3---------------3---2------|
------------3---3---3-------2-----2---|----3---------3---------3--------|
--------3-----3-----------3---------3-|------------3-------3------------|
--1---------------------3-------------|----------0-----0-1-------0-2-4--|
----------------------1---------------|--3-----3------------------------|


  2:04                                                                 
       ^                                                               
  E    S S S S S S S S S S S S S S    S S S S S S S S S S S S S S S S  
-------1-0-1---------------5-------|----------------------------------|
-------3-------3---------5---5-----|------3-------1-------3-------3---|
-------2-----2---2-----5-------5---|--------3-------0-------0-------0-|
--0------------------5-------------|----3-------2-------3-------2-----|
-------------------0-------------0-|--1-------3---------------0-------|
-----------------------------------|------------------3---------------|


  02:14                                                                 
        ^              ^                                                
  E     S S S S S S E  S S S S S S    S S S S S S  S S S S S S S S S S  
--------5---5----------3---3-------|------1-0-1-3S-5-1-0-------3-0-----|
--------6-6-----6------5-5---5---5-|---------------------3-1-------1---|
--------7-----7---7----5-------5---|----2--------------------0-------0-|
--0-----------------0--------------|--0----------------0---------------|
-----------------------------------|-----------------------------------|
-----------------------------------|-----------------------------------|


  ^                  
  W                  
--5----------------||
--6----------------||
--7----------------||
--0----------------||
--0----------------||
-------------------||
Login or Register to remove this ad.

3 comments on Fake Wings 1

This tab is really amazing,

5

This tab is really amazing, I've always loved this song. Thanks so much for the tabs~

Much easier than the version

Much easier than the version I'm familiar with, thanks!

thanks

I do love this song, I tried to do a tab too, but it was terrible.
Thank you so much.