Ads

Boukoku Kakusei Catharsis (.hack//Roots) Guitar Tab

Submitted: Nov 19, 2013 by corntastic

3.857145
Average: 3.9 (7 votes)
Download | Listen
Game: .hack//Roots
Composer(s): Mikiya Katakura
Style: Transcription

AutoScroll: Slow | Medium | Fast
Boukoku Kakusei Catharsis
.Hack//Roots
Mikiya Katakura, Ali Project
corntastic
17 11 2013


Intro, skip the second time:
e-----------------------------------8-------------------------------------
B--9--8--8--8--9--8--------9--8--8-----9--8-------------------------------
G--------------------10----------------------10---------------------------
D-------------------------------------------------------------------------
A-------------------------------------------------------------------------
E------------------------------------------------------------------------- x 2

Still the intro:
e-------------------------------------------------------------------------
B------8--8--8--8--8-8-9-8------------------------------------------------
G-------------------------------8--8--8--7--------------------------------
D--10-----------------------10----------------8--10-----------------------
A-------------------------------------------------------------------------
E-------------------------------------------------------------------------

e-------------------------------------------------------------------------
B------8--8--8--10--8----8-------------------8----------------------------
G---------------------10---8-8-10--7--11--7-------------------------------
D--10---------------------------------------------------------------------
A-------------------------------------------------------------------------
E-------------------------------------------------------------------------

e------------------------------------------------8------------------------
B------8--8--8--8--8-8-9-8--------------------8---------------------------
G-------------------------------8--8--8--7--------------------------------
D--10-----------------------10--------------------------------------------
A-------------------------------------------------------------------------
E-------------------------------------------------------------------------

e---------------------8---------------------------------------------------
B----------------8-------7--7----7-8--------------------------------------
G--8--8--8--7-------------------------------------------------------------
D-------------------------------------------------------------------------
A-------------------------------------------------------------------------
E-------------------------------------------------------------------------

______________________________________________________________________________________


e-------------------------------------------------------------------------
B--------------------------8--7-------------------------------------------
G--9--10--9----9--10--9----------10----10--9--8---------------------------
D-------------------------------------------------------------------------
A-------------------------------------------------------------------------
E------------------------------------------------------------------------- x 2

e-------------------------------------------------------------------------
B--10--11--10----10--11--10--9--10----------------------------------------
G-------------------------------------------------------------------------
D-------------------------------------------------------------------------
A-------------------------------------------------------------------------
E-------------------------------------------------------------------------

e-------------------------------------------------------------------------
B--8-------------------10----------10-------------------------------------
G-----9s10----9--10--------9s10--------9----10--7-------------------------
D-------------------------------------------------------------------------
A-------------------------------------------------------------------------
E-------------------------------------------------------------------------

e-------------------------------------------------------------------------
B--------------------------8--7-------------------------------------------
G--9--10--9----9--10--9----------10----10--9--8---------------------------
D-------------------------------------------------------------------------
A-------------------------------------------------------------------------
E------------------------------------------------------------------------- x 2

e-------------------------------------------------------------------------
B----------------8-------------------------------------------7------------
G--7--8--7----7-----7--5--7----5--8s10----8--7----6-7-9--7-9--------------
D-------------------------------------------------------------------------
A-------------------------------------------------------------------------
E-------------------------------------------------------------------------

______________________________________________________________________________________


e-------------------------------------------------------------------------
B-------------------------------------------------------------------------
G--7----10--8--7----10--7----------7--------------------------------------
D--------------------------10--10-----8-----------------------------------
A-------------------------------------------------------------------------
E-------------------------------------------------------------------------

e-------------------------------------------------------------------------
B--8--------11------------------------------------------------------------
G-------10------5Ls7----10--7----------7----------------------------------
D------------------------------10--10-----8-------------------------------
A-------------------------------------------------------------------------
E-------------------------------------------------------------------------

e-------------------------------------------------------------------------
B---------8----11--8------8----11--8------8b9Lr8--------------------------
G--7-8-10-------------10--------------10----------------------------------
D-------------------------------------------------------------------------
A-------------------------------------------------------------------------
E-------------------------------------------------------------------------

______________________________________________________________________________________


e-------------------------------------------------------------------------
B------8--8--8--8--8-8-9-8------------------------------------------------
G-------------------------------8--8--8--7--------------------------------
D--10-----------------------10----------------8--10-----------------------
A-------------------------------------------------------------------------
E-------------------------------------------------------------------------

e-------------------------------------------------------------------------
B------8--8--8--10--8----8-------------------8----------------------------
G---------------------10---8-8-10--7--11--7-------------------------------
D--10---------------------------------------------------------------------
A-------------------------------------------------------------------------
E-------------------------------------------------------------------------

e------------------------------------------------8------------------------
B------8--8--8--8--8-8-9-8--------------------8---------------------------
G-------------------------------8--8--8--7--------------------------------
D--10-----------------------10--------------------------------------------
A-------------------------------------------------------------------------
E-------------------------------------------------------------------------

e---------------------10--------------------------------------------------
B----------------8--------7--7----7-8-------------------------------------
G--8--8--8--7-------------------------------------------------------------
D-------------------------------------------------------------------------
A-------------------------------------------------------------------------
E-------------------------------------------------------------------------

______________________________________________________________________________________


e----8-7-10-8h11--10-8-----------8----------------------------------------
B--8--------------------11-10-11---11-10-8-----------8--------------------
G------------------------------------------10-8sL10-----------------------
D-------------------------------------------------------------------------
A-------------------------------------------------------------------------
E-------------------------------------------------------------------------


e----8-7-10-8h11--10-8--8-------------------------------------------------
B--8----------------------8-----------------------------------------------
G---------------------------10-8-7----------------------------------------
D----------------------------------10-9-10--------------------------------
A-------------------------------------------------------------------------
E-------------------------------------------------------------------------

Repeat everything, minus the intro
______________________________________________________________________________________


e-----------------------------------8-------------------------------------
B--9--8--8--8--9--8--------9--8--8-----9--8-------------------------------
G--------------------10----------------------10---------------------------
D-------------------------------------------------------------------------
A-------------------------------------------------------------------------
E------------------------------------------------------------------------- x 2

______________________________________________________________________________________


e-------------------------------------------------------------------------
B------8--8--8--8--8-8-9-8------------------------------------------------
G-------------------------------8--8--8--7--------------------------------
D--10-----------------------10----------------8--10-----------------------
A-------------------------------------------------------------------------
E-------------------------------------------------------------------------

e-------------------------------------------------------------------------
B------8--8--8--10--8----8-------------------8----------------------------
G---------------------10---8-8-10--7--11--7-------------------------------
D--10---------------------------------------------------------------------
A-------------------------------------------------------------------------
E-------------------------------------------------------------------------

e------------------------------------------------8------------------------
B------8--8--8--8--8-8-9-8--------------------8---------------------------
G-------------------------------8--8--8--7--------------------------------
D--10-----------------------10--------------------------------------------
A-------------------------------------------------------------------------
E-------------------------------------------------------------------------

e---------------------10--------------------------------------------------
B----------------8--------7--7----7-8-------------------------------------
G--8--8--8--7-------------------------------------------------------------
D-------------------------------------------------------------------------
A-------------------------------------------------------------------------
E-------------------------------------------------------------------------

______________________________________________________________________________________ x 2


e----8-7-10-8h11--10-8-----------8----------------------------------------
B--8--------------------11-10-11---11-10-8----------8---------------------
G------------------------------------------10-8sL10-----------------------
D-------------------------------------------------------------------------
A-------------------------------------------------------------------------
E-------------------------------------------------------------------------


e----8-7-10-8h11--10-8--8-------------------------------------------------
B--8----------------------8-----------------------------------------------
G---------------------------10-8-7----------------------------------------
D----------------------------------10-9-10--------------------------------
A-------------------------------------------------------------------------
E-------------------------------------------------------------------------

Login or Register to remove this ad.

2 comments on Boukoku Kakusei Catharsis

good

5

It is very helpful for newcomers. It really makes me happy. Thanks slope 2

Software

5

Hi, I am james, a highly motivated WordPress Developer. I have 2 years of experience in developing and designing websites using Php, WordPress, HTML, CSS, Bootstrap, and MySql. I have strong communication skills. I understand my Client's minds then I turn their imagination into their live site. I make and solve website problems every day.