Ads

Omokage (Gundam SEED Destiny) Guitar Tab

Submitted: Jun 19, 2019 by chimatte (Last updated: Jul 30, 2019)

5
Average: 5 (2 votes)
Download | Listen
Game: Gundam SEED Destiny
Composer(s): Toshihiko Sahashi
Style: Arrangement, Fingerstyle

Click here for a video example.

AutoScroll: Slow | Medium | Fast
                                  OMOKAGE - Gundam Seed Destiny                                     


OMOKAGE (Capo 2)

     Q    Q    E  E  E  E     E  E  E  E  E  E  E  E     E  E  E  E  E  E  E  E   
E||------------------------|--0--------------0--------|--------------------------|
B||------------------0--1--|-----------------------3--|-----------------0--1--3--|
G||---------------2--------|--------5-----------------|--------0--2--------------|
D||------------------------|-----------3--------------|-----0--------------------|
A||------------------------|-----5--------5-----5-----|--------------------------|
D||------------------------|--0-----------------------|--5-----------------------|


  E  E  E  E  E  E  E  E     E  E  E  E  E  E  E  E     E  E  E  E  E  E  E  E   
--3-----0-----------------|-----------------1--0--1--|-----0--------------------|
-----------1-----3--------|--------------------------|-----------3-----1-----0--|
-----------------------2--|-----------0--------------|--------------------------|
-----2--------------2-----|--------3-----------------|--------0-----0-----0-----|
--------------------------|-----3--------------------|--------------------------|
--2-----------------------|--3-----------------------|--0-----------------------|


  E  E  Q    Q    Q       E  E  E  E  E  Q    E     H        E  E  E  E   
-------------0---------|-------------------------|-----------------------|
-------------0----3----|--1--3-----1-----0-------|-----------------0--1--|
--------1--------------|-------------------------|--0-----------2--------|
-----2-----------------|--2--3-----2-----0-------|-----------------------|
-----------------------|--0-----0-------------0--|--3--------------------|
--2--------------------|-------------------------|-----------------------|


  E  E  E  E  E  E  E  E     E  E  E  E  E  E  E  E     E  E  E  E  E  E  E  E   
--0--------------0--------|--------------------------|--3-----5--3--------------|
-----------------------3--|-----------------0--1--3--|--------------------3-----|
--------5-----------------|--------0--2--------------|-----------------4-----5--|
-----------3--------------|-----0--------------------|-----2--------2-----------|
-----5--------5-----5-----|--------------------------|--------------------------|
--0-----------------------|--5-----------------------|--2-----------------------|


  E  E  E  E  E  E  E  E     E  E  E  E  E  E  E  E     E  E  Q    Q    Q     
--------------------------|-----0--------------------|-------------0---------|
-----------------6--5--6--|-----------3-----1-----0--|-------------0----3----|
--------------------------|--------------------------|--------1----1---------|
--------3--5--------------|--------0-----0-----0-----|-----2-----------------|
-----3--------------------|--------------------------|-----------------------|
--3-----------------------|--0-----------------------|--2--------------------|


  E  E  E  E  E  Q    E     H        E  E  E  E     E  E  E  E  E  E  E  E   
-------------------------|-----------------------|--------------------------|
--1--3-----1-----0-------|--------------1--------|--------------------------|
-------------------------|--2-----------------0--|--0--2-----------------5--|
--2--3-----2-----0-------|-----------------3-----|--------0--3-----0--------|
--0-----0-------------0--|--3--------------------|-----0--------------------|
-------------------------|-----------------------|--0-----------------0-----|


  E  E  E  E  Q    E  E     E  E  E  E  E  E  Q       E  E  E  E  E  E  E  E   
-------------------------|--3----------------------|--5-----------------------|
-----0-----3-------------|-----------1-------------|--5--8-----5--------1-----|
--5----------------0-----|--------0----------------|--5--------5-----2--------|
----------------------2--|-----2-----------2-------|--------7-----------------|
-------------------------|-------------------------|--0--------------------2--|
--5-----5----------------|--2-----------------2----|--------------------------|


  E  E  E  E  E  E  E  E     E  E  E  E  E  E  Q       E  E  E  E  E   E   E   E   
--------------------------|-------------------------|-----------3-----------------|
-----------------0--1--3--|--1--0-------------------|--1-----0------------12--13--|
-----------0--2-----------|-----------1-------------|-----2-----------------------|
-----0--3-----------------|-----2--2--------2-------|-----------------------------|
--2-----------------------|-------------------------|--0--------------12----------|
--------------------------|--2-----------------2----|-----------------------------|


   W                   E  E  E  E  E  E  E  E     E  E  E  E  E  E  Q     
--15----------------|--------------------------|-------------------------|
--------------------|--1-----------------1-----|--0-----------0-----3----|
--------------------|--2--------2-----2-----0--|--0--0--0-----0--5-------|
--------------------|--3--0--3-----3-----------|--0----------------------|
--------------------|--------------------------|-------------------------|
--------------------|--0-----------------------|--5--------5--------3----|


  T T T T Q    E  E  E  Q       E  E  E  E  E  E  Q       E  E  E  E  E  E  E  E   
------------------------3----|--------------------0----|--------------------1-----|
--3-1-0----------------------|--1--0-----1-------------|--1-----------------------|
--------0---------------0----|-----------------2-------|--2--------2--------2-----|
---------------2-----2-------|--2--0-----2-------------|-----0--3--------0-----2--|
-----------------------------|--0----------------------|--------------------------|
--2---------------2----------|-------------------------|--0-----------------------|


  E  E  E  E  E  E  Q       E  E  E  E  E  E  Q       Q.     E  H           H        E  E  E  E   
-------------------------|-----------1-------------|--1------0--0--------|--L--------------------|
--3--------0-------------|--1----------------------|---------------------|-----------------0--1--|
--------0-----------0----|--------2-----------2----|--2------1--1--------|--L-----------2--------|
-----0-----------2-------|-----3-----------3-------|---------------------|-----------------------|
-------------------------|-------------------------|---------------------|-----------------------|
--2----------------------|--3----------------------|--2---------2--------|--L--------------------|


  E  E  E  E  E  E  E  E     E  E  E  E  E  E  E  E     E  E  E  E  E  E  E  E   
--0--------------0--------|--------------------------|--3-----0-----------------|
-----------------------3--|-----------------0--1--3--|-----------1-----3--------|
--------5-----------------|--------0--2--------------|-----------------------2--|
-----------3--------------|-----0--------------------|-----2--------------2-----|
-----5--------5-----5-----|--------------------------|--------------------------|
--0-----------------------|--5-----------------------|--2-----------------------|


  E  E  E  E  E  E  E  E     E  E  E  E  E  E  E  E     E  E  Q    Q    Q     
-----------------1--0--1--|-----0--------------------|-------------0---------|
--------------------------|-----------3-----1-----0--|-------------0----3----|
--2--------0--0-----------|--------------------------|--------1----1---------|
--------3-----------------|--------0-----0-----0-----|-----2-----------------|
-----3--------------------|--------------------------|-----------------------|
--3-----------------------|--0-----------------------|--2--------------------|


  E  E  E  E  E  Q    E     H        E  E  E  E     E  E  E  E  E  E  E  E   
-------------------------|-----------------------|--0--------------0--------|
--1--3-----1-----0-------|-----------------0--1--|-----------------------3--|
-------------------------|--0-----------2--------|--------5-----------------|
--2--3-----2-----0-------|-----------------------|-----------3--------------|
--0-----0-------------0--|--3--------------------|-----5--------5-----5-----|
-------------------------|-----------------------|--0-----------------------|


  E  E  E  E  E  E  E  E     E  E  E  E  E  E  E  E     E  E  E  E  E  E  E  E   
--------------------------|--3-----5--3--------------|--------------------------|
-----------------0--1--3--|--------------------3-----|-----------------6--5--6--|
--------0--2--------------|-----------------4-----5--|--------------------------|
-----0--------------------|-----2--------2-----------|--------3--5--------------|
--------------------------|--------------------------|-----3--------------------|
--5-----------------------|--2-----------------------|--3-----------------------|


  E  E  E  E  E  E  E  E     E  E  Q    Q    Q       E  E  E  E  E  Q    E     W                 
-----0--------------------|-------------0---------|-------------------------|-------------------|
-----------3-----1-----0--|--0----------0----3----|--1--3-----1-----0-------|-------------------|
--------------------------|--------1----1---------|-------------------------|--2----------------|
--------0-----0-----0-----|-----2-----------------|--2--3-----2-----0-------|-------------------|
--------------------------|-----------------------|--0-----0-------------0--|--3----------------|
--0-----------------------|--2--------------------|-------------------------|-------------------|


  E  E  E  E  E  E  E  E     E  E  H.              E  E  E  E  E  E  E  E     E  E  H.            
--5--3-----3-----5--------|---------------------|--5--3-----3-----5--------|---------------------|
--5--5--5--5--------------|-----8--8------------|--5--5--5--5--------------|-----8--8------------|
--5-----5--------------5--|---------------------|--5-----5--------------5--|-----0--0------------|
-----------------------5--|---------------------|-----------------------5--|---------------------|
--------------------8-----|--7------------------|--------------------8-----|--7------------------|
--3-----------------------|---------------------|--3-----------------------|---------------------|


  E  E  E  E  E  E  E  E     E  E  H.              E  E  E  E  E  E  E  E     E  E  H.            
--------------------------|---------------------|--------------------------|---------------------|
--------------------------|---------------------|--------------------------|---------------------|
--2--0-----0-----2--------|-----0--0------------|--2--0-----0-----2--------|-----0--0------------|
--2--2--2--2--------3-----|---------------------|--2--2--2--2--------3-----|---------------------|
--3-----3--------------3--|---------------------|--3-----3--------------3--|---------------------|
--3-----------------------|--2--5--5------------|--3-----------------------|--2--5--5------------|


  E  E  H.              E  E  E  E  E  E  E  E     W                  
---------------------|--------------------------|-------------------||
---------------------|--0--0--------------------|-------------------||
---------------------|--------0--0--------------|-------------------||
-----3--3------------|--------------2--2--0--0--|--2----------------||
--0--3--3------------|--0-----------------------|--0----------------||
--0------------------|--------------------------|-------------------||




Duration Legend
---------------
W - whole
H - half
Q - quarter
E - 8th
S - 16th
T - 32nd
X - 64th
. - note dotted
|-n-|  - n-tuplets


Tablature Legend
----------------
L - tied note
x - dead note
g - grace note
(n) - ghost note
> - accentuded note
NH - natural harmonic
AH - artificial harmonic
TH - tapped harmonic
SH - semi harmonic
PH - pitch harmonic
h - hammer on
p - pull off
b - bend
br - bendRelease
pb - preBend
pbr - preBendRelease
brb - bendReleaseBend
\n/ - tremolo bar dip
\n - tremolo bar dive
-/n - tremolo bar Release up
/n\ - tremolo bar inverted dip
/n - tremolo bar return
-\n - tremolo bar Release down
S - shift slide
s - legato slide
/ -  slide into from below or out of upwards
\ -  slide into from above or out of downwards
~ - vibrato
W - wide vibrato
tr - trill
TP - tremolo picking
T - tapping
S - slap
P - pop
< - fade in
^ - brush up
v - brush down
Login or Register to remove this ad.

1 comment on Omokage

With this tablature there is

With this tablature there is also a video in the recordings section.