Mienai Kotae (Gundam SEED Destiny) Guitar Tab

Submitted: Apr 25, 2016 by Coolbreeze

5
Average: 5 (1 vote)
Download | Listen
Game: Gundam SEED Destiny
Composer(s): Toshihiko Sahashi
Style: Fingerstyle, Transcription

AutoScroll: Slow | Medium | Fast
					Mienai Kotae
				~Gundam SEED DESTINY O.S.T 2~

Music by Kajiura Yuki and Toshihiko Sakahashi
Tabbed by Coolbreeze
Tempo = 58



      S S S S S S S S H           S S S S S S S S E  E  Q     
E||----------------------------|-----------------------------|
B||---------0------------------|--------0--------------------|
G||*------0-----2---0-L--------|------0-----2---0----0--L----|
D||*----4-----2---0------------|----4-----2---0--------------|
A||----------------------------|------------------3----------|
E||---0------------------------|--0--------------------------|


                                     ^                 
  S S S S S S S S S S S S S S S S    W                 
--------------------------------0-|--3----------------|
--------0---------------0---3-0---|--5----------------|
------0-----2---0---0-----2-------|--4----------------|
----4-----2---0-------4-----------|--5----------------|
------------------3---------------|--3----------------|
--0-------------------------------|-------------------|


  Q    S S S S S S S S Q       Q    S S S S S S S S E  E   
--2----------7---5---3-L----|--L----------7---5---3----3--|
--3------7-8---5---3--------|---------7-8---5---3---1-----|
--2-------------------------|-----------------------------|
--0-------------------------|-----------------------------|
----------------------------|-----------------------------|
-------0--------------------|-------0---------------------|


                                     ^                     ^        ^         
  S S S S S S S S S S S S S S S S    W                 1.  H        H         
--------------------------------0-|--3----------------|--5g2-----------------|
--------0---------------0---3-0---|--5----------------|----3--------5--------|
------0-----2---0---0-----2-------|--4----------------|----2-----------------|
----4-----2---0-------4-----------|--5----------------|----0--------5--------|
------------------3---------------|--3----------------|-------------3--------|
--0-------------------------------|-------------------|----------------------|


  S S E  E  S S E  Q    E     E  S S S S S S S S Q.      
--7-5-7--0--------------5--|--L--3-2-3-2-3-2-3-2-L------|
------------0---0----------|----------------------------|
--------------2---------5--|--L--4-2-4-2-4-2------------|
-------------------2-------|----------------------------|
---------------------------|----------------------------|
---------------------------|----------------------------|


                               ^                                             
  S S S S Q    S S S S Q       W                   S S E  E  S S E  Q    E   
----------------------------|-------------------|--7-5-7--0--------------5--|
----------------------------|--0----------------|------------0---0----------|
----0-----------------------|--0----------------|--------------2---------5--|
--4---4---------------------|--2----------------|-------------------2-------|
--------5-L-----------------|-------------------|---------------------------|
---------------2-3-2-0-L----|-------------------|---------------------------|


  E  S S S S E  H           S S S S Q    S S S S Q       
--L--3-2-3-2-------------|-----------------------------||
-------------3--L--------|-----------------------------||
--L--4-2-----------------|----0-----------------------*||
-------------------------|--4---4---------------------*||
-------------------------|--------5-L------------------||
-------------------------|---------------2-3-2-0-L-----||


    ^                                                  
    Q    Q    S S E  E  E     E  S S S S E  Q.     E   
--5g2---------7-5-7--0--5--|--L--3-2-3-2--------------|
----3----------------------|-------------3--L---------|
----2-------------------5--|--L--4-2---------------2--|
----0----------------------|--------------------------|
---------------------------|--------------------------|
---------0-----------------|--------------------------|


  E  Q    S S S S S S S S E     Q.     S S H           W                  
-----------------------------|----------------------|-------------------||
-----0----------0------------|----------------------|-------------------||
--L-----------0-----2---0----|--0-------------------|-------------------||
------------4-----2---0------|-----------2-L--------|--L----------------||
--------------------------3--|----------------------|-------------------||
-----------------------------|---------0------------|-------------------||
Login or Register to remove this ad.