Ads

Saga ~ This is My Road (Guin Saga) Guitar Tab

Submitted: Dec 16, 2017 by MechaKrauser

5
Average: 5 (1 vote)
Download | Listen
Game: Guin Saga
Composer(s): Nobuo Uematsu
Style: Arrangement, Fingerstyle

AutoScroll: Slow | Medium | Fast
Saga ~ This is my road
from Guin Saga
performed by Kanon
words and music by Kanon
tab by MechaKrauser

Standard tuning
4/4 time (intro is in 6/4), 120bpm

*some fingerings have been marked above the duration:
I=Index, M=Middle, R=Ring, P=Pinky


  [Intro]
   6/4
     ^      ^                  v     ^      ^                  v     ^      ^                  v   
     Q.     E  H.           E  E     Q.     E  H.           E  E     Q.     E  H.           E  E   
E||-------------------------------|-------------------------------|--0------0--L---------------1--|
B||--1------1--L---------------3--|--0------0--L---------------1--|--x------x------------------x--|
G||--2------2--L---------------2--|--0------0--L---------------0--|--0------0--L---------------0--|
D||--2------2--L---------------2--|--2------2--L---------------2--|--2------2--L---------------2--|
A||--0------0--L------------------|--2------2--L------------------|--3------3--L------------------|
E||-------------------------------|--0------0--L------------------|-------------------------------|


  ^    v ^                   v     ^    v ^                   v     ^      ^                  v   
  Q    S E.  H.           E  E     Q    S E.  H.           E  E     Q.     E  H.           E  E   
-----------------------------0--|--1----1-1---L---------------0--|-------------------------------|
--3----3-3---L---------------3--|--3----3-3---L---------------3--|--1------1--L---------------0--|
--0----0-0---L---------------0--|--2----2-2---L---------------2--|--2------2--L---------------2--|
--0----0-0---L------------------|--0----0-0---L------------------|--2------2--L---------------2--|
--x----x-x----------------------|--------------------------------|--0------0--L------------------|
--3----3-3---L------------------|--------------------------------|-------------------------------|


  ^      ^               ^         ^      ^                    4/4                        
  Q.     E  H.           E   E     Q.     Q.     H.              E  E   E  E  E  E  Q     
--------------------------------|-----------------------------|------------7--L--8--L----|
--1------1--L------------1h--3--|--1------0------L------------|--------10----------------|
--2------2--L------------2------|--0------0------L------------|-----9--------------------|
--3------3--L------------3------|--0------0------L------------|--7-----------------------|
--x------x----------------------|--x------x-------------------|--------------------------|
--1------1--L-------------------|--3------3------L------------|--------------------------|


  R  M  I  P                                                                           
  E  E  E  E  E  E  Q       E  E  E  E  E  E  E   E      E   E   E   E   E   E   Q     
-----------7--L--8--L----|-----------7--L--8--L--12--|--12------10--------------------|
-------------------------|---------------------------|------------------13------12----|
--------5----------------|--------0------------------|--------------------------------|
-----7-------------------|---------------------------|------12------12------12--------|
--8----------------------|-----7---------------------|--10----------------------------|
-------------------------|--8------------------------|--------------------------------|


                                                        ^                         
  E  E  E  E  E  E  E  E     E  E  E  E  E  E  E  E     E  E  E  E  E   E  E  E   
--------------------------|--------------------------|--------------0h--1--0-----|
-----------0--L--1--L-----|-----------0--L--1--L-----|--1---------------------1--|
--------2-----------------|--------2-----------------|-----------0---------------|
-----2-----------------2--|-----3-----------------3--|-----2---------------------|
--0-----------------------|--------------------------|--3-----3------------------|
--------------------------|--1-----------------------|---------------------------|


                         [Verse 1]
  ^                                                                             
  E  E  E  E  E  E  Q       E  E  E  E  E  E  E  E     E  E  E  E  E  E  E  E   
-------------------------|--------------------3-----|--3--------------------0--|
--3--------1-----0--L----|-----------1--1-----------|-----------0-----1--------|
--------0----------------|--------2-----------------|--------2-----------------|
-----0--------0----------|-----2-----------2-----2--|-----3--------------3-----|
-------------------------|--0-----------0-----------|--------------------------|
--3----------------------|--------------------------|--1-----------1-----------|


  E  E  E   E  E  E  E  E     E  E  E  E  E  E  E  E     E  E  E  E  E  E  E  E   
--3-----3p--1--------0-----|--------------------------|--------------------3-----|
---------------------------|--3-----------1-----0-----|--------------1-----------|
-----0------------0-----0--|--------0-----------------|--------2-----------------|
---------------------------|-----0-----0-----0-----0--|-----2-----2-----2-----2--|
--3------------3-----------|--------------------------|--0-----------0-----------|
---------------------------|--3-----------3-----------|--------------------------|


  E  E  E  E  E  E  E  E     E  E  E  E  E  E  E  E     E  E  E  E  E  E  E  E   
--3--------------------0--|--3--------3--------8-----|--7-----------------------|
-----------0-----1--------|--------1-----------------|--------------------0-----|
--------2-----------------|-----0-----------0-----0--|-----0-----5--------------|
-----3--------------3-----|--------------------------|--------0--------0-----0--|
--------------------------|--3-----------3-----------|--------------------------|
--1-----------1-----------|--------------------------|--3-----------3-----------|


  E  E  E  E  E  E  E  E     E  E  E  E  E  E  E  E     E  E  E  E  E  E  E  E   
--------------------3-----|--3-----------0-----1-----|--3--------1--------0-----|
-----------1--1-----------|-----------0--------------|--------------------------|
--------2-----------------|--------2-----------------|--------0--------0-----0--|
-----2-----------2-----2--|-----3-----------3-----3--|-----2--------------------|
--0-----------0-----------|--------------------------|--3-----------3-----------|
--------------------------|--1-----------1-----------|--------------------------|


  E  E  E  E  E  E  E  E     E  E  E  E  E  E  E  E     E  E  E  E  E  E  E  E   
-----------0--------1-----|--0-----------------3-----|--3-----------0-----1-----|
--3-----------------------|-----------1--------------|-----------0--------------|
--------0--------0-----0--|--------2--------2-----2--|--------2-----------------|
-----0--------------------|-----2--------------------|-----3-----------3-----3--|
--------------------------|--0-----------0-----------|--------------------------|
--3-----------3-----------|--------------------------|--1-----------1-----------|


                                                     [Pre-Chorus]

  E  E  E  E  E  E  E  E     E  E  E  E  E  E  E  E     E  E  E  E  E  E  E  E   
--3--------3--------8-----|--7-----------8-----------|--------8--------------0--|
--------------------------|-----------0-----------0--|-----------------8--6-----|
--------0--------0-----0--|--------0-----------0-----|-----------5--------------|
-----2--------------------|-----0-----------0--------|-----7--------7-----------|
--3-----------3-----------|--------------------------|--0-----------------------|
--------------------------|--3-----------------------|--------------------------|


  E  E  E  E  E  E  E  E     E  E  E  E  E  E   E  E     E  E  E  E  E  E  E  E   
--1--0--------------0-----|-----------------0h--1-----|--0-----------------------|
-----------------------1--|--3--------3---------------|-----------1-----0--------|
--------2-----------------|--------0---------------0--|--------0-----------------|
--3--------3-----3--------|-----2---------------------|-----0--------0--------0--|
--------------------------|--3-----------3------------|--------------------------|
--------------1-----------|---------------------------|--3-----------------3-----|


  E  E  E  E  E  E  E  E     E  E  E  E  E  E  E  E     E  E  E  E  E  E  E  E   
-----------8-----------0--|--1--0--------------------|--------------------3-----|
--------5--------8--6-----|--------------------3--1--|--3--------3-----1--------|
--------------------------|--------2-----------------|--------0--------------0--|
-----7--------7-----------|--3--------3-----3--------|-----2--------------------|
--0-----------------------|--------------------------|--3-----------3-----------|
--------------------------|--------------1-----------|--------------------------|


                                                 [Chorus]

  E  E  E  E  E  E  E  E     Q.     E  Q    Q       E  E  E  E  E  E  E  E   
--3-----------------------|---------0--0----8----|--8-----------------------|
-----------1-----0--------|----------------------|-----------0--------------|
--------0-----------------|----------------------|-----5-----------5--------|
-----0--------0--------0--|----------------------|--------7--------------7--|
--------------------------|----------------------|--0-----------0-----0-----|
--3-----------------3-----|--3-------------------|--------------------------|


  R  M  I  P                                                                     
  E  E  E  E  E  E  E  E     E  E  E  E  E  E  E  E     E  E  E  E  E  E  E  E   
-----------7--------8-----|--8-----------------------|--0-----------------------|
--------------------------|-----------8--------6-----|-----------1-----0--------|
--------5-----------------|--------0--------0-----0--|--------0-----------------|
-----7-----------7-----7--|--------------------------|-----0--------0--------0--|
--8-----------8-----------|-----7--------------------|--------------------------|
--------------------------|--8-----------8-----------|--3-----------------3-----|


                                                                              P     M      
                                                                    |---3--|               
  E  E  E  E  E  E  E  E     E  E  E  E  E  E   E  E      E  E  E   S   S  S  E  E  E  E   
-----------0--0-----8-----|--8--------8--------10-----|--12--------12p-10p-8-10-----8-----|
--------------------------|---------------------------|-----------------------------------|
--------2-----------------|--------5------------------|------0-------------------0--------|
-----2-----------7-----7--|-----7-----------7------7--|-----------------------------------|
--0-----------0-----------|--8-----------8------------|-----------------------------------|
--------------------------|---------------------------|---8-----8----------------------8--|


   E  E  E   E  E  E  E  E     E  E  E  E  E  E  E  E     E  E  E  E  E  E   E  E   
--10------------------------|-----------0--0-----8-----|--8--------7-----7s--8-----|
-------------------0--------|--------------------------|---------------------------|
---0-----0------0--------0--|--------2-----------------|--------5------------------|
------0-----10--------0-----|-----2-----------7-----7--|-----7------------------7--|
----------------------------|--0-----------0-----------|--8-----------8------------|
----------------------------|--------------------------|---------------------------|


  E  E  E  E  E  E  E  E     E  E  E  E  E  E  E  E     E  E  E  E  E  E  E  E   
--8-----------------------|--0-----------------------|--0-----------------------|
-----------8--------6-----|--------------1-----3-----|-----------1--1-----------|
--------0--------0-----0--|--------0-----------------|--------2-----------2--0--|
--------------------------|-----0-----0-----0-----0--|-----2-----------2--------|
-----7--------------------|--------------------------|--0-----------0-----------|
--8-----------8-----------|--3-----------3-----------|--------------------------|


  E  E  E  E  E  E  E  S S    E  E  E  E  E  E  E  E     E  E  E  E  E  E  E   E   
---------------------------|--------------------------|--0-----------0------------|
-----------------3-----3-1-|-----------------------1--|-----3-----1-----3--1h--3--|
-----2---------------------|--------0-----------0-----|---------------------------|
--------3------------------|-----2-----2-----2--------|--------0------------------|
-----------3--------3------|--3-----------3-----------|---------------------------|
--1-----------1------------|--------------------------|--3-----------3------------|


 [Interlude]
  ^           ^              ^           ^            
  E  E  E  E  E  E  E  E     E  E  E  E  E  E  E  E   
--0-----------0-----------|--------------3-----------|
-----------1--1-----------|--1--------1--1-----------|
--2--------------2-----2--|--2-----2--------2-----2--|
-----2-----2--------2-----|-----3-----3--------3-----|
--0-----0-----0-----------|--------------------------|
--------------------------|--1-----------1-----------|


  ^                |---3--|  |---3--|  |--3--|    ^           ^            
  E  E  E  E   E   S   S  S  S   S  S  S  S  S    E  E  E  E  E  E  E  E   
--8--------8--12--12p-10p-8--------------------|--------------------3-----|
--6-------------------------12p-10p-8----------|--0-----------0-----3-----|
--------0------0----------------------10p-9p-7-|--0-----------0-----------|
-----------------------------------------------|-----0-----0-----0-----0--|
-----7-----------------------------------------|--------2-----------------|
--8------------8-------------------------------|--3-----------3-----------|


  ^           ^              ^           ^              ^           ^            
  E  E  E  E  E  E  E  E     E  E  E  E  E  E  E  E     E  E  E  E  E  E  E  E   
--0-----------1-----0-----|--------------------------|--------------------------|
--1--------1--1-----1-----|--1-----------1--------0--|--1-----------1--------1--|
--------------------------|--2-----------2-----------|--0-----------0-----------|
-----2-----2-----2-----2--|-----3-----3-----3-----3--|-----2-----2-----2-----2--|
--0-----0-----0-----------|--------3-----------3-----|--3-----3-----3-----3-----|
--------------------------|--1-----------1-----------|--------------------------|


                          [Verse 2]
  ^                                                                              
  E  E  E  E  E  E  E  E     E  E  E  E  E  E  E  E     E  E  E  E  E  E  E  E   
--------------------------|--------------------3-----|--3--------------------0--|
--1-----0-----------------|-----------1--1-----------|-----------0-----1--------|
--0-----0-----------------|--------2-----------------|--------2-----------------|
-----0-----0-----0-----0--|-----2-----------2-----2--|-----3--------------3-----|
--------------------2-----|--0-----------0-----------|--------------------------|
--3-----------3-----------|--------------------------|--1-----------1-----------|


  E  E  E   E  E  E  E  E     E  E  E  E  E  E  E  E     E  E  E  E  E  E  E  E   
--3-----3p--1--------0-----|--------------------------|--------------------3-----|
---------------------------|--3-----------1-----0-----|-----------1--1-----------|
-----0------------0-----0--|--------0-----------------|--------2--------2-----2--|
---------------------------|-----0-----0-----0-----0--|-----2--------------------|
--3------------3-----------|--------------------------|--0-----------0-----------|
---------------------------|--3-----------3-----------|--------------------------|


  E  E  E  E  E  E  E  E     E  E  E  E  E  E  E  E     E  E  E  E  E  E  E  E   
--3--------0--0-----1-----|--3--------3--------8-----|--7-----------8-----------|
--------------------------|--------------------------|-----------0-----------0--|
--------2-----------------|--------0--------0-----0--|--------0-----------0-----|
-----3-----------3-----3--|-----2--------------------|-----0-----------0--------|
--------------------------|--3-----------3-----------|--------------------------|
--1-----------1-----------|--------------------------|--3-----------------------|


 [Pre-Chorus 2]

  E  E  E  E  E  E  E  E     E  E  E  E  E  E  E  E     E  E  E  E  E  E   E  E   
-----------8-----------0--|--1--0--------------0-----|-----------------0h--1-----|
--------5--------8--6-----|-----------------------1--|--3--------3---------------|
--------------------------|--------2-----------------|--------0---------------0--|
-----7--------7-----------|--3--------3-----3--------|-----2---------------------|
--0-----------------------|--------------------------|--3-----------3------------|
--------------------------|--------------1-----------|---------------------------|


  E  E  E  E  E  E  E  E     E  E  E  E  E  E  E  E     E  E  E  E  E  E  E  E   
--0-----------------------|-----------8-----------0--|--1--0--------------------|
-----------1-----0--------|--------5--------8--6-----|--------------------3--1--|
--------0-----------------|--------------------------|--------2-----------------|
-----0--------0--------0--|-----7--------7-----------|--3--------3-----3--------|
--------------------------|--0-----------------------|--------------------------|
--3-----------------3-----|--------------------------|--------------1-----------|


  E  E  E  E  E   E  E  E     E  E  E  E  E  E  E  E     Q.     E  Q    Q     
---------------------3-----|--3-----------------------|---------0--0----8----|
--3--------1--3p--1--------|-----------1-----0--------|----------------------|
--------0---------------0--|--------0-----------------|----------------------|
-----2---------------------|-----0--------0--------0--|----------------------|
--3-----------3------------|--------------------------|----------------------|
---------------------------|--3-----------------3-----|--3-------------------|


 [Chorus 2]

  E  E  E  E  E  E  E  E     E  E  E  E  E  E  E  E     E  E  E  E  E  E  E  E   
--8-----------------------|-----------7--------8-----|--8-----------------------|
-----------0--------------|--------------------------|-----------8--------6-----|
-----5-----------5--------|--------5-----------------|--------0--------0-----0--|
--------7--------------7--|-----7-----------7-----7--|--------------------------|
--0-----------0-----0-----|--8-----------8-----------|-----7--------------------|
--------------------------|--------------------------|--8-----------8-----------|


  E  E  E  E  E  E  E  E     E  E  E  E  E  E  E  E     E  E  E  E  E  E   E  E   
--0-----------------------|-----------0--0-----8-----|--8--------8--------10-----|
-----------1-----0--------|--------------------------|---------------------------|
--------0-----------------|--------2-----------------|--------5------------------|
-----0--------0--------0--|-----2-----------7-----7--|-----7-----------7------7--|
--------------------------|--0-----------0-----------|--8-----------8------------|
--3-----------------3-----|--------------------------|---------------------------|


             |---3--|                                                                       
   E  E  E   S   S  S  E  E  E  E      E  E  E   E  E  E  E  E     E  E  E  E  E  E  E  E   
--12--------12p-10p-8-10-----8-----|--10------------------------|-----------0--0-----8-----|
-----------------------------------|-------------------0--------|--------------------------|
------0-------------------0--------|---0-----0------0--------0--|--------2-----------------|
-----------------------------------|------0-----10--------0-----|-----2-----------7-----7--|
-----------------------------------|----------------------------|--0-----------0-----------|
---8-----8----------------------8--|----------------------------|--------------------------|


  E  E  E  E  E  E   E  E     E  E  E  E  E  E  E  E     E  E  E  E  E  E  E  E   
--8--------7-----7s--8-----|--8-----------------------|--0-----------------------|
---------------------------|-----------8--------6-----|--------------1-----3-----|
--------5------------------|--------0--------0-----0--|--------0-----------------|
-----7------------------7--|--------------------------|-----0-----0-----0-----0--|
--8-----------8------------|-----7--------------------|--------------------------|
---------------------------|--8-----------8-----------|--3-----------3-----------|


  E  E  E  E  E  E  E  E     E  E  E  E  E  E  E  S S    E  E  E  E  E  E  E  E   
--0-----------------------|---------------------------|--------------------------|
-----------1--1-----------|-----------------3-----3-1-|--L--------------------1--|
--------2-----------2--0--|-----2---------------------|--------0-----------0-----|
-----2-----------2--------|--------3------------------|-----2-----2-----2--------|
--0-----------0-----------|-----------3--------3------|--3-----------3-----------|
--------------------------|--1-----------1------------|--------------------------|


                           [Bridge]
                              ^           ^              ^           ^            
  E  E  E  E  E  E  E   E     E  E  E  E  E  E  E  E     E  E  E  E  E  E  E  E   
--0-----------0------------|--0-----------------------|--------------3-----------|
-----3-----1-----3--1h--3--|--------------1-----------|--0-----------0-----------|
---------------------------|--2-----------2--2-----2--|--0--------------0-----0--|
--------0------------------|--2--2-----2--------2-----|-----2-----2--------2-----|
---------------------------|--0-----0-----0-----------|--------2-----------------|
--3-----------3------------|--------------------------|--0-----------0-----------|


  ^                          ^        |--3--|                ^           ^            
  E  E  E  E  E  E  E  E     E  E  E  S  S  S E  E  E  E     E  E  E  E  E  E  E  E   
--3-----------1--0--------|--0--------0h-1p-0-------------|--------------------------|
--1-----------1-----3--1--|--1----------------3-----------|--------------1-----------|
-----2-----2--------------|--------0-------------0-----0--|--2-----------2--2-----2--|
--------3-----------------|-----2-------------------0-----|--2--2-----2--------2-----|
--------------------------|--3----------------2-----------|--0-----0-----0-----------|
--1-----------1-----------|-------------------------------|--------------------------|


  ^           ^              ^                 |--3--|       ^                        
  E  E  E  E  E  E  E  E     E  E  E  E  E  E  S  S  S E     E  E  E  E  E  E  E  E   
--------------3--------3--|--3-----------3--1--0h-1p-0----|-----------------------3--|
--0-----------0--------0--|--1-----------1--L----------1--|--3--------------------3--|
--0--------------0--------|-----2-----2-------------------|--0-----------------------|
-----2-----2--------2-----|--------3----------------------|-----0-----0-----0--------|
--------2-----------------|-------------------------------|--------2-----------2-----|
--0-----------0-----------|--1-----------1--L-------------|--3-----------3-----------|


                                                 [Final Chorus]
  ^                                                                          
  E  E  E  E  E  E  E  E     Q.     E  Q    Q       E  E  E  E  E  E  E  E   
--3-----------------------|---------0--0----8----|--8-----------------------|
--3-----------------------|----------------------|-----------0--------------|
-----0-----0-----0--------|----------------------|-----5-----------5--------|
--------0--------------0--|----------------------|--------7--------------7--|
--------------------2-----|----------------------|--0-----------0-----0-----|
--3-----------3-----------|--3-------------------|--------------------------|


  E  E  E  E  E  E  E  E     E  E  E  E  E  E  E  E     E  E  E  E  E  E  E  E   
-----------7--------8-----|--8-----------------------|--0-----------------------|
--------------------------|-----------8--------6-----|-----------1-----0--------|
--------5-----------------|--------0--------0-----0--|--------0-----------------|
-----7-----------7-----7--|--------------------------|-----0--------0--------0--|
--8-----------8-----------|-----7--------------------|--------------------------|
--------------------------|--8-----------8-----------|--3-----------------3-----|


                                                                    |---3--|               
  E  E  E  E  E  E  E  E     E  E  E  E  E  E   E  E      E  E  E   S   S  S  E  E  E  E   
-----------0--0-----8-----|--8--------8--------10-----|--12--------12p-10p-8-10-----8-----|
--------------------------|---------------------------|-----------------------------------|
--------2-----------------|--------5------------------|------0-------------------0--------|
-----2-----------7-----7--|-----7-----------7------7--|-----------------------------------|
--0-----------0-----------|--8-----------8------------|-----------------------------------|
--------------------------|---------------------------|---8-----8----------------------8--|


   E  E  E   E  E  E  E  E     E  E  E  E  E  E  E  E     E  E  E  E  E  E   E  E   
--10------------------------|-----------0--0-----8-----|--8--------7-----7s--8-----|
-------------------0--------|--------------------------|---------------------------|
---0-----0------0--------0--|--------2-----------------|--------5------------------|
------0-----10--------0-----|-----2-----------7-----7--|-----7------------------7--|
----------------------------|--0-----------0-----------|--8-----------8------------|
----------------------------|--------------------------|---------------------------|


  E  E  E  E  E  E  E  E     E  E  E  E  E  E  E  E     E  E  E  E  E  E  E  E   
--8-----------------------|--0-----------------------|--0-----------------------|
-----------8--------6-----|--------------1-----3-----|-----------1--1-----------|
--------0--------0-----0--|--------0-----------------|--------2-----------2--0--|
--------------------------|-----0-----0-----0-----0--|-----2-----------2--------|
-----7--------------------|--------------------------|--0-----------0-----------|
--8-----------8-----------|--3-----------3-----------|--------------------------|


  E  E  E  E  E  E  E  S S    E  E  E  E  E  E  E  E     E  E  E  E  E  E  E   E   
---------------------------|--------------------------|--0-----------0------------|
-----------------3-----3-1-|--L--------------------1--|-----3-----1-----3--1h--3--|
-----2---------------------|--------0-----------0-----|---------------------------|
--------3------------------|-----2-----2-----2--------|--------0------------------|
-----------3--------3------|--3-----------3-----------|---------------------------|
--1-----------1------------|--------------------------|--3-----------3------------|


 [Outro]
  ^                          ^                          ^                        
  E  E  E  E  E  E  E  E     E  E  E  E  E  E  E  E     E  E  E  E  E  E  E  E   
--5-----------8-----------|--7-----------3-----------|--3-----------1-----------|
--5-----------5-----------|--5-----------0-----------|--1-----------1-----------|
-----5-----5-----5-----5--|-----0-----0--------------|-----2-----2--------------|
--------7-----------7-----|-----------------2-----2--|--------3--------3-----3--|
--0-----------------------|--------7-----------2-----|--------------------3-----|
--------------------------|--0-----------------------|--1-----------------------|


  ^           ^              ^                          ^           ^            
  E  E  E  E  E  E  E  E     E  E  E  E  E  E  E  E     E  E  E  E  E  E  E  E   
--0-----------0-----------|--0-----------------------|--3-----------------------|
--1-----------0-----3-----|--1-----------------------|--0-----------0-----------|
-----0-----0-----0-----0--|-----2-----2--------2-----|-----0-----0--0-----------|
--------2-----------------|--------2--------2-----2--|--------2--------2-----2--|
--3-----------2-----------|--0-----------0-----------|--------------------2-----|
--------------------------|--------------------------|--0-----------------------|


                             *rall---------------------------------------------->90bpm
  ^                          ^                          ^                        
  E  E  E  E  E  E  E  E     E  E  E  E  E  E  E  E     E  E  E  E  E  E  E  E   
--------------------------|--------------------------|--------------------------|
--1-----------------------|--3-----------------------|--0-----------------------|
--2-----------------------|--4-----------------------|--0-----------------------|
-----3-----3--------3-----|-----5-----5--------5-----|-----0-----0--------0-----|
--------3--------3-----3--|--------5--------5-----5--|--------2--------2-----2--|
--1-----------1-----------|--3-----------3-----------|--3-----------3-----------|


  ^                                      
  W                   W                  
-------------------|-------------------||
-------------------|-------------------||
--2----------------|--L----------------||
--2----------------|--L----------------||
--0----------------|--L----------------||
-------------------|-------------------||




Duration Legend
---------------
W - whole
H - half
Q - quarter
E - 8th
S - 16th
T - 32nd
X - 64th
. - note dotted
|-n-|  - n-tuplets


Tablature Legend
----------------
L - tied note
x - dead note
g - grace note
(n) - ghost note
> - accentuded note
NH - natural harmonic
AH - artificial harmonic
TH - tapped harmonic
SH - semi harmonic
PH - pitch harmonic
h - hammer on
p - pull off
b - bend
br - bendRelease
pb - preBend
pbr - preBendRelease
brb - bendReleaseBend
\n/ - tremolo bar dip
\n - tremolo bar dive
-/n - tremolo bar Release up
/n\ - tremolo bar inverted dip
/n - tremolo bar return
-\n - tremolo bar Release down
S - shift slide
s - legato slide
/ -  slide into from below or out of upwards
\ -  slide into from above or out of downwards
~ - vibrato
W - wide vibrato
tr - trill
TP - tremolo picking
T - tapping
S - slap
P - pop
< - fade in
^ - brush up
v - brush down
Login or Register to remove this ad.