The Midnight Carnival (Guilty Gear X2) Guitar Tab

Submitted: Jun 24, 2009 by zen03y (Last updated: Mar 14, 2010)

5
Average: 5 (1 vote)
Download | Listen
Game: Guilty Gear X2
Composer(s): Daisuke Ishiwatari, Koh-Ichi Seyama
Style: Alternate picking, Transcription

AutoScroll: Slow | Medium | Fast
Title:    The Midnight Carnival
Game:     Guilty Gear X2
Composer: Daisuke Ishiwatari, Koh-Ichi Seyama
Tabbed by zen03y on 6/22/09
Edited on 3/13/10
Pretty similar to X Japan's Kurenai.

/ = Slide/Hammer/Pull-Off

Drop 1/2 Step

d# |----------------------------------------------------|
A# |----------------------------------------------------|
F# |----------------------------------------------------|
C# |----------------------------------------------------|
G# |----------------------------------------------------|
D# |----------------------------------------------------|

-----------------
--------Beginning

d# |----------------------------------------------------|
A# |----------------------------------------------------|
F# |----------------------------------------------------|
C# |----------------------------------------------------|
G# |-0-0-0-0-0-0-0-0-2-2-2-2-2-2-2----------------------|
D# |----------------------------------------------------|

d# |----------------------------------------------------|
A# |----------------------------------------------------|
F# |-----7-5-----4---------4/5------7-5-----------------|
C# |-----7-5-----4---------4/5------7-5-----4-5/4---4/5-|
G# |-0-0-----0-0---0-0-0-0------0-0-----0-0-------0-----|
D# |----------------------------------------------------|

                                            
d# |----------------------------------------------------|
A# |----------------------------------------------------|
F# |-----7-5-----4---------4/5------7-5-----2-----0-----|
C# |-----7-5-----4---------4/5------7-5-----5-----2-----|
G# |-0-0-----0-0---0-0-0-0------0-0-----0-0---0-0-------|
D# |----------------------------------------------------|

d# |----------------------------------------------------|
A# |----------------------------------------------------|
F# |-----7-5-----4---------4/5------7-5-----------------|
C# |-----7-5-----4---------4/5------7-5-----4-5-4---4/5-|
G# |-0-0-----0-0---0-0-0-0------0-0-----0-0-------0-----|
D# |----------------------------------------------------|

d# |----------------------------------------------------|
A# |----------------------------------------------------|
F# |-----7-5-----4---------4/5------7-5-----0-----------|
C# |-----7-5-----4---------4/5------7-5-----0-----7/0---|
G# |-0-0-----0-0---0-0-0-0------0-0-----0-0---0-0-7/0---|
D# |----------------------------------------------------|
                                         (End of song only
d# |----------------------------------------------------|
A# |----------------------------------------------------|
F# |-7--5--2--------------------------------------------|
C# |-7--5--2--3--3--3--5------6------7---(7--7)---------|
G# |-5--3--0--3--3--3--5------6------7---(7--7)---------|
D# |----------1--1--1--3------4------5---(5--5)---------|

----------------------------------
--------Other Rhythm for Beginning
     *       Repeat until   here                      * 
d# |----------------------------------------------------|
A# |----------------------------------------------------|
F# |----------------------------------------------------|
C# |-7---------------------5---6---*--------------------|
G# |-7-7-----7-----7-------5---6---*-------3-----3------|
D# |---5-5-5-5-5-5-5-5-5-----5---5---------1-1-1-1-1-1--|

-----------------
-------------Solo
------------111-----
d# |----------------------------------------------------|
A# |------------------------------0--0------------------|
F# |-2---2/4--5-4---2-2-------2---------2---------------|
C# |---------------------2/3----------------------------|
G# |----------------------------------------------------|
D# |----------------------------------------------------|

d# |----------------------------------------------------|
A# |-------0--1-0-----------------0--0------------------|
F# |-2-2-2----------2-2-------2---------2---------------|
C# |---------------------2/3----------------------------|
G# |----------------------------------------------------|
D# |----------------------------------------------------|

d# |----------------1---0-0-----------------------------|
A# |------------1-3-----------------6---5---------------|
F# |----------2-----------------------------------------|
C# |-2/3--3-3-------------------3-----------------------|
G# |----------------------------------------------------|
D# |----------------------------------------------------|
---------------END111-

d# |----------------------------------------------------|
A# |-4-4-4-4-4-3-1-3-----1------------------------------|
F# |-----------------3-------3--3--2--0--2--------------|
C# |----------------------------------------------------|
G# |----------------------------------------------------|
D# |----------------------------------------------------|

REPEAT 111

d# |-----2--3--5--6----6--6--5--3--5--------------------|
A# |-4--------------------------------------------------|
F# |----------------------------------------------------|
C# |----------------------------------------------------|
G# |----------------------------------------------------|
D# |----------------------------------------------------|

d# |-------6---7-9-----10--14---------------7/12--------|
A# |---7-9----------7----------12--10--9---------12--10-|
F# |-7--------------------------------------------------|
C# |----------------------------------------------------|
G# |----------------------------------------------------|
D# |----------------------------------------------------|

d# |-------------------------------7-9-7---------7------|
A# |-9---------10-10------------10-------10---9----10-9-|
F# |----9-9------------9-9-11---------------------------|
C# |----------------------------------------------------|
G# |----------------------------------------------------|
D# |----------------------------------------------------|

d# |----------------------------------------------------|
A# |-9-7-6----------------------------------------------|
F# |----------------------------------------------------|
C# |----------------------------------------------------|
G# |----------------------------------------------------|
D# |----------------------------------------------------|

d# |-------6---7-9-----10--14---------------12--10-9----|
A# |---7-9----------7----------12--10--9-------------12-|
F# |-6--------------------------------------------------|
C# |----------------------------------------------------|
G# |----------------------------------------------------|
D# |----------------------------------------------------|

d# |----------------------------------------------------|
A# |-10--------------9-10-12----------------------------|
F# |----9----11---11--------------10----11--------------|
C# |-------------------------12-------------------------|
G# |----------------------------------------------------|
D# |----------------------------------------------------|
Login or Register to remove this ad.