Ads

Make Oneself (Guilty Gear X2) Guitar Tab

Submitted: Jun 07, 2015 by allstar99

0
Download | Listen
Game: Guilty Gear X2
Composer(s): Daisuke Ishiwatari, Koh-Ichi Seyama
Style: Transcription

This song is also called Axl's Theme

AutoScroll: Slow | Medium | Fast
Make Oneself - [Axl's theme]

Game..................................................Guilty Gear XX [Arc System Works]
Composers............................................Daisuke Ishiwatari, Koichi Seiyama
Tab...........................................................................allstar99
Tuning..........................................................Full step down [DGCFAD]

Adapted for soloist play

rhythm 0:00 [repeat twice]
D||-------------------------|	   |---------------------|
A||-------------------------|	   |---------------------|
F||----------9-9-------7-7--|	   |---------9-----------|
C||--2-2-2---9-9--7-7--7-7--|<-[x3]|-2-2-2---9--7-2-5-6--|
G||--2-2-2---7-7--7-7--5-5--|	   |-2-2-2---7--7-2-5-6--|
D||--0-0-0--------5-5-------|	   |-0-0-0------5-0-3-4--|

lead 0:16
D||-----------------------------------------------------------------------------------|
A||--9b10-9------------7-11-9b10-9-------10b12----------------------------------------|
F||---------9----7-9-------------------9-------9--9-7-9-------------------------------|
C||------------------9----------------------------------9-7\--------------------------|
G||-----------------------------------------------------------------------------------|
D||-----------------------------------------------------------------------------------|

D||-------------------------------------------------------------10b12-10--------------|
A||--9b10-9------------7-11-9b10-9--------10b12----------7-10-7-----------------------|
F||---------9----7-9--------------------9-------9--9-7-9------------------------------|
C||------------------9----------------------------------------------------------------|
G||-----------------------------------------------------------------------------------|
D||-----------------------------------------------------------------------------------|

D||--10b12----------------------------------------------------------------------------|
A||--------12----10-9-10-9-10-12-9--------------9-9b10-9------------------------------|
F||-------------------------------------8-9---9---------------------------------------|
C||-----------------------------------------------------------------------------------|
G||-----------------------------------------------------------------------------------|
D||-----------------------------------------------------------------------------------|

D||--10b12--------------------------------------------10\-----------------------------|
A||--------12----10-9-10-9-10-12-9------------10-9-12---------------------------------|
F||-------------------------------------8-9-------------------------------------------|
C||-----------------------------------------------------------------------------------|
G||-----------------------------------------------------------------------------------|
D||-----------------------------------------------------------------------------------|

rhythm 0:55 [repeat twice]
D||-------------------------|	   |---------------------|
A||-------------------------|	   |---------------------|
F||----------9-9-------7-7--|	   |---------9-----------|
C||--2-2-2---9-9--7-7--7-7--|<-[x3]|-2-2-2---9--7-2-5-6--|
G||--2-2-2---7-7--7-7--5-5--|	   |-2-2-2---7--7-2-5-6--|
D||--0-0-0--------5-5-------|	   |-0-0-0------5-0-3-4--|

lead 1:11
D||---------------------------------------------------24-17---------------------------|
A||--9b10-9------------7-11-9b10-9-------10b12--------------10\-----------------------|
F||---------9----7-9-------------------9-------9--9-7---------------------------------|
C||------------------9----------------------------------------------------------------|
G||-----------------------------------------------------------------------------------|
D||-----------------------------------------------------------------------------------|

D||-------------------------------------------------------------10b12-10--------------|
A||--9b10-9------------7-11-9b10-9--------10b12----------7-10-7-----------------------|
F||---------9----7-9--------------------9-------9--9-7-9------------------------------|
C||------------------9----------------------------------------------------------------|
G||-----------------------------------------------------------------------------------|
D||-----------------------------------------------------------------------------------|

D||--10b12----------------------------------------------------------------------------|
A||--------12----10-9-10-9-10-12-9--------------9-9b10-9------------------------------|
F||-------------------------------------8-9---9---------------------------------------|
C||-----------------------------------------------------------------------------------|
G||-----------------------------------------------------------------------------------|
D||-----------------------------------------------------------------------------------|

D||--10b12--------------------------------------------10\-----------------------------|
A||--------12----10-9-10-9-10-12-9------------10-9-12---------------------------------|
F||-------------------------------------8-9-------------------------------------------|
C||-----------------------------------------------------------------------------------|
G||-----------------------------------------------------------------------------------|
D||-----------------------------------------------------------------------------------|

jazz solo 1:51
D||-------------------12----10-12-----------------------------------------------------|
A||--/12-/12-------------12-------12-----------10---9h10p9----9-----------------------|
F||--------------------------------------------------------11---9-11---9b10br9-----8--|
C||------------------------------------------------------------------------------9----|
G||-----------------------------------------------------------------------------------|
D||-----------------------------------------------------------------------------------|

D||-----------------------------------------------------------------------------------|
A||--------------------------11-10-9-8----9-------------------------------------------|
F||----8-11-8-9---------9-11-----------11---9-11--8-9----8----------------------------|
C||--9----------------9-------------------------------11---9-11-----------------------|
G||-------------------------------------------------------------9-9-------------------|
D||-----------------------------------------------------------------------------------|

D||-----------------------------------------------------14---11b12-11-9---------------|
A||------------------------9--8----------------------14-----------------12------------|
F||--------6---9--------11------11-9-7-9-6--------14----------------------------------|
C||------7---------------------------------7------------------------------------------|
G||--7-9-------------------------------------9----------------------------------------|
D||-----------------------------------------------------------------------------------|

breakdown 2:03
D||-----------------------------------------------------------------------------------|
A||-----------------------------------------------------------------------------------|
F||-----------------------------------------------------------------------------------|
C||--2-2---2-2------2-2---2-2------2-2---2-2------2-2--2---2-5-6-7--------------------|
G||--2-2---2-2------2-2---2-2------2-2---2-2------2-2--2---2-5-6-7--------------------|
D||--0-0---0-0------0-0---0-0------0-0---0-0------0-0--0---0-3-4-5--------------------|

lead 2:09
D||--10b12----------------------------------------------------------------------------|
A||--------12----10-9-10-9-10-12-9--------------9-9b10-9------------------------------|
F||-------------------------------------8-9---9---------------------------------------|
C||-----------------------------------------------------------------------------------|
G||-----------------------------------------------------------------------------------|
D||-----------------------------------------------------------------------------------|

D||--10b12--------------------------------------------10------------------------------|
A||--------12----10-9-10-9-10-12-9------------10-9-12---------------------------------|
F||-------------------------------------8-9-------------------------------------------|
C||-----------------------------------------------------------------------------------|
G||-----------------------------------------------------------------------------------|
D||-----------------------------------------------------------------------------------|

D||--10b12----------------------------------------------------------------------------|
A||--------12----10-9-10-9-10-12-9--------------9-9b10-9------------------------------|
F||-------------------------------------8-9---9---------------------------------------|
C||-----------------------------------------------------------------------------------|
G||-----------------------------------------------------------------------------------|
D||-----------------------------------------------------------------------------------|

D||--10b12--------------------------------------------10------------------------------|
A||--------12----10-9-10-9-10-12-9------------10-9-12---------------------------------|
F||-------------------------------------8-9-------------------------------------------|
C||-----------------------------------------------------------------------------------|
G||-----------------------------------------------------------------------------------|
D||-----------------------------------------------------------------------------------|

outro solo 2:47
D||------------------------17-/17b18-15--------15-------------------------------------|
A||-----------------------------------------17----17-15----15-15/17-------------------|
F||-----------------------------------------------------16----------------------------|
C||---0-------------------------------------------------------------------------------|
G||--/5-0-0-0-0-0---------------------------------------------------------------------|
D||-----5-5-5-5-5-5p3-5-3\------------------------------------------------------------|

D||-----------------------------------------------------------------------------------|
A||--17-15-----------------12---------------------------------------------------------|
F||--------14-14b16br14-12----12------------------------------------------------------|
C||------------------------------14-12-14-12------------------------------------------|
G||------------------------------------------12-10------------------------------------|
D||-----------------------------------------------------------------------------------|

D||-----------------------------------------------------------------------------------|
A||-----------------------------------------------12----------------------------------|
F||--------------------12---------12-14b16-14p12-----12~------------------------------|
C||-----------10-12-14---------14-----------------------------------------------------|
G||-----10-12-------------------------------------------------------------------------|
D||-----------------------------------------------------------------------------------|
Login or Register to remove this ad.