Ads

Bios Delta (Guilty Crown) Guitar Tab

Submitted: Apr 26, 2013 by scarecrowlol (Last updated: Apr 26, 2013)

4.857145
Average: 4.9 (7 votes)
Download | Listen
Game: Guilty Crown
Composer(s): Hiroyuki Sawano, Mika Kobayashi
Style: Arrangement, Artificial harmonics, Fingerstyle

This song is also called βιοζ-δ

AutoScroll: Slow | Medium | Fast
Title: βιοζ-δ
SubTitle: Guilty Crown
Artist: Hiroyuki Sawano, Mika Kobayashi
Tabber: Mitch Jackson
Tempo = 70
T/S = 4/4

TUNING = Drop C

ORIGINAL SONG = https://www.youtube.com/watch?v=vLhafvJvPUI



    ERIN- NERST DU  DICH NOCH?  ERIN- NERST DU DICH NOCH       AN     DEIN  WORT    DAS DU      MIR  GEGE- BEN   HAST?
                                                               g             g
     Q     Q     Q     E  E       Q     Q     E  E  Q          Q       Q     Q       E  E       Q     Q     Q     Q
D |--------------1-----3-------|--------------1--3----------|--3s5-----3-----1s3-----1h-0----|--0-----1-----0-------------|
A |--1-----3--------------1----|--1-----3-----------1-------|--------------------------------|--------------------1-------|
F |----------------------------|----------------------------|--------------------------------|----------------------------|
C |----------------------------|----------------------------|--------------------------------|----------------------------|
G |----------------------------|----------------------------|--------------------------------|----------------------------|
C |----------------------------|----------------------------|--------------------------------|----------------------------|


    ERIN- NERST DU  DICH NOCH?  ERIN- NERST DU DICH NOCH       AN      DEN   TAG   AN DEM     DU    MIR...?
                                                               g                 
     E  E  Q     Q     E  E       E  E  Q     E  E  Q          E    E  E  E  E  E  E  E       Q     H.
  |--------------1-----3-------|-----------------3----------|--3s5-----3-----3-----1--0----|--0-----1~------------------|
  |--1-----3--------------1----|--------3-----6-------------|----------------------1--3----|----------------------------|
  |--------3-------------------|--5-----5-----------5-------|----------------0--2----------|----------------------------|
  |-----3----------------------|-----5----------------------|----------0--3----------------|----------------------------|
  |--1-------------------------|--3-------------------------|-------0----------------------|----------------------------|
  |----------------------------|----------------------------|--0---------------------------|--0-------------------------|


       DE RUI-NEN-STADT IST        IM-  MER  NOCH  SCHÖN           ICH WAR- TE LANGE ZEIT       AUF DEI-  NE    RÜC-   KKEHR 
     ^     g                                        ^                  g                                        g
     E  E  E    E  Q     Q          E.   E.   Q     Q     E      E  E  E    E  Q     Q          E.   E.   E  E  E    E  E    
  |-(1)----3s5--3--5-------------|--0----1----3----(6)----1---|--0-----3s5--3--5-------------|--0----1----3------------------|
  |-----3----------------6-------|--1---------------5---------|--1--3----------------6-------|--1---------------3s5-----3----|
  |--2---------------------------|--3---------------3---------|------------------------------|--3----------------------------|
  |--0---------------------------|--0---------------0---------|--0---------------------------|--0-----------(3)------0--3----|
  |------------------------------|----------------------------|------------------------------|-------------------------------|
  |------------------------------|----------------------------|------------------------------|------------------0------------|


                   IN DER HAND               EIN VERGISSMEIN-      NICHT                                      RE-  GEN-
     ^                                                 g
     E  E  E  E  E  E  E  E       E  E  E  E  E  E  E  E          E  E  E  Q     Q.            H           E  E.   E.  
  |--------------------1--0----|-(0)----------0--1--3----------|----------------------------|----------------------10------|
  |--1--------------1----------|-----------------------1s3-----|-----3----<1>---------------|------------------------------|
  |--3--------3----------------|--5----------------------------|--2-------------<0>---------|-----------------7------------|
  |--3-----3-(3)-3-------------|--5--------0-------------------|--0-----0-------------------|--0L----------L---------------|
  |--1--1-----1----------------|--3-----3----------------------|----------------------------|--0L----------L---------------|
  |----------------------------|-----5-------------------------|----------------------------|--0L----------L---------------|


     TROP- FEN  SIND MEIN TRÄ-    NEN            WIND IST       ME-   IN   ATEM  UND  MEIN    ER-ZÄHLUNG           ZWEI- 
     ^
     E  E  E  E  E  E  E  E       E  E  E  E  E  E.   E.        E  E  E  E  E.   E.   E       E  E  E  E  E  E  E  E 
  |--9-----10------------------|----------------------10-----|--9-----10----5---------7----|--7--9--5--------------5----|
  |--10----------10-------12---|--10----------7--------------|--------------5----7---------|-----------------5----------|
  |--11------------------------|--------------7--7-----------|-----------------------------|-----------4--6-----4-------|
  |-----0-----9--12-9----------|--------7--9----------9------|--------5--7-----------------|--------4-------------------|
  |--------9-------------------|-----9-----------------------|-----5-----------------------|-----4----------------------|
  |--9-----------------9-------|--7--------------7-----------|--5--------------------------|--4-------------------------|


   GE UND BLÄTTER SIND MEIN HÄ-    ÄN-   DE       DENN MEIN    KÖRPER IST IN WUR- ZELN GE-     HÜLLT          WENN DIE  
     
     E  E  E  E  E.   E.   E       E  E  Q     E  E.   E.        E  E  E  E  E.   E.   E       E  E  E  E  E  E  S S E 
  |--5--3--3--2--2--------------|----------------------5------|--5--------------------------|----------------------10-----|
  |-------------------3---------|--5--------------------------|-----8--8--7--7--------------|----------(10)---------------|
  |-----------2------------4----|--------7--------7-----------|-------------------9----7----|--9--------9-----7-----------|
  |--------2--------------------|--------4-----4--------------|--------5--7-----------------|-----0-----7-----------------|
  |-----2------------------2----|-----5--------5--------------|-----5-----------------------|--------7-----7---------7----|
  |--2-----------2--------------|--4----------(4)-------------|--5-----------5--------------|--7-----------------7--------|


     JAH-  RES-  ZEIT DES  TAU-    ENS  KOMMT         WERDE      ICH   WACH  UND  SINGE E-     IN       LIED 
     ^
     E  E  E  E  E  S S E  E       E  S S E  E  E  E  E  E       E  E  E  E  E  S S E  E       E  E  E  E  E  E  E  E 
  |--9-----10-------------------|--7---------------------10---|--9-----10----12---5----12---|--12------------------------|
  |--10----------10--------12---|-------10--------------------|-----------------------------|----------------------------|
  |--11----------11---11--------|---------------7-----7-------|-----------------------------|-----------11---------------|
  |-----0-----9-----12----------|---------7-----7-------------|--------5-----9------5-------|--------7-----9-----7-------|
  |--------9------------9-------|-----9------9-----9----------|-----5-----5-----5-----------|-----7-----7-----7-----7----|
  |--9---------------------9----|--7------------------7-------|--5--------------------------|--7-------------------------|


     DAS            VERGISSMEIN-  NICHT   DAS DU   MIR  GE-     GEBEN HAST       IST HI-     ER    
  
     E  E  E  E  E  E  E  E       E  E  E  E  E  S S E  E       E  E  E  E  E  E  E  E       E  E  E  E  E  E  Q 
  |----------------------------|-------------------7----9----|--10-9--5-------------------|----------------------------|
  |--10------------------------|--10----------10-------------|--------------------7--5----|----------------(10)--------|
  |--------------11-12-11-12---|-----------7-----7-----------|-------------(7)------------|--9----------(7)---(7)------|
  |--------9--12-------9-------|--------7-----9------7-------|--------5-----5-----5-------|--------7-----7-------------|
  |-----9-----------9-----9----|-----9-----9------------9----|-----5-----5-----5-----5----|-----7-----7----------------|
  |--9-------------------------|--7--------------------------|--5-------------------------|--7-------------------------|


                                                     
     g                                                                                                    ^  
     H             Q     Q          E  E  E  E  Q     Q          E  E  E  E  Q     Q          E  E  E  E  E  S S S S E 
  |----------------1-----3-------|--------------------3-------|--------------8-----10------|--3--------------------3------|
  |--1s3-------------------------|--3-----------6-------------|--10------------------------|-----------3--6------5--------|
  |------------------------------|--------5-------------------|----------------------------|--------5-----5----5-----5----|
  |---------------------(0)------|-----5-----5----------------|--------8--10-12------------|-----5--------5--5------------|
  |------------------------------|--3-----------------3-------|-----8----------------------|--3-----------3---------------|
  |--0---------------------------|----------------------------|--8-----------------8-------|------------------------------|


                                                     

     E  S S S S S S S S S S S S S S      S S S E  S S S S S S S S S S S      S S S S  S S S S S S S S S S S S 
  |---------------1-----1-------------|-----------------------------3-----|-------------------------------------|
  |--3----------1-----1-----1---------|--6-----6--6-5-3-5---3---5---------|-------------------------------------|
  |-----------2-----2-----2-----2-----|------5------------5---5---5---5---|-----------------9-----9-----12--10--|
  |-------0-3-----------------3---3---|----5------------------------------|--12--8-10-12--10--12----10----10----|
  |-----0-----------------------------|--3--------------3-----------3-----|----8--------8-------8-----8---------|
  |--0----------------------0---------|-----------------------------------|--8----------------------------------|


                                                     
                           ^
     S S S S S S S S E  E  Q          W                            W              
  |--3-------------3-------10------|--10L-----------------------|--L-------------------------||
  |--------3-5---5---------10------|-(10)-----------------------|--L-------------------------||
  |------5-----5--------0--9-------|----------------------------|----------------------------||
  |----5-------------------10------|----------------------------|----------------------------||
  |--3---------------3-------------|----------------------------|----------------------------||
  |--------------------------------|--0L------------------------|--L-------------------------||


LYRICS:  (German)
--------------------------

 ERINNERST DU DICH NOCH?  
 ERINNERST DU DICH NOCH AN DEIN WORT, DAS DU MIR GEGEBEN HAST?
 ERINNERST DU DICH NOCH? 
 ERINNERST DU DICH NOCH AN DEN TAG, AN DEM DU MIR...?
 
 DIE RUINENSTADT IST IMMER NOCH SCHÖN
 ICH WARTE LANGE ZEIT AUF DEINE RÜCKKEHR     
 IN DER HAND, EIN VERGISSMEINNICHT   
 
 REGENTROPFEN SIND MEIN TRÄNEN
 WIND IST MEIN ATEM UND MEIN ERZÄHLUNG 
 ZWEIGE UND BLÄTTER SIND MEINE HÄNDE 
 DENN MEIN KÖRPER IST IN WURZELN GEHÜLLT 
 
 WENN DIE JAHRESZEIT DES TAUENS KOMMT, 
 WERDE ICH WACH UND SINGE EIN LIED       
 DAS VERGISSMEINNICHT DAS DU MIR GEGEBEN 
 HAST, IST HIER     

Login or Register to remove this ad.

8 comments on Bios Delta

Man, the grammar is awful :d

5

Man, the grammar is awful :d But good tab nonetheless

Lol, the lyrics are exactly

Lol, the lyrics are exactly as they appear in the song as i got them from a scan of the albums booklet. I put it into google translate and it translated a bit oddly XD

Nono, the lyrics are correct!

Nono, the lyrics are correct! It just seems that the original already has an awful grammar :d

Japanese speaking German

Japanese speaking German ┐( ̄ー ̄)┌

That reminds me: I recently

That reminds me: I recently tried to watch a show called Black Lagoon. It was really hard to watch because of all the "English" ^^;

I find it funny when they

I find it funny when they speak English sentences or put a couple of English words into a sentence because they pronounce it so oddly XD

Whatever I thought Guilty

Whatever I thought Guilty Crown had a amazing OST so I'm more than happy to see this on gametabs, regardless of how badly they butchered the lyrics.

I just loved this anime! OST

I just loved this anime! OST and all! I dont speak german so they lyrics don't really bother me haha XD ,but i got a good idea of what they meant through google translate anyway