Setsuko to Seita (Grave of the Fireflies) Guitar Tab

Submitted: Sep 03, 2009 by kenor (Last updated: Feb 06, 2010)

5
Average: 5 (14 votes)
Download | Listen
Game: Grave of the Fireflies
Composer(s): Michio Mamiya
Style: Arrangement, Fingerstyle

AutoScroll: Slow | Medium | Fast
Setsuko to Seita (Main Theme)
~Hotaru no Haka / Grave of the Fireflies~ 
Composed by: Michio Mamiya
Arranged by: kenor

Rhytm: 3/4 metrum
Capo 6

     Q    Q       Q    Q    Q       Q    Q    Q       Q    Q    Q
E||------------|-----------------|-------0----2----|--3--------------|
B||--0----1----|--3---------3----|--3---------3----|------------0----|
G||------------|------------0----|-------2---------|------------0----|
D||------------|-----------------|-----------------|-----------------|
A||------------|-------2---------|-----------------|-------2---------|
E||------------|--3--------------|--2--------------|--0--------------|


     Q    Q    Q       Q    Q    Q       Q    Q    Q       Q    Q    Q       Q    Q    Q
E||-----------------|--0---------0----|--0---------0----|-----------------|-----------------|
B||--0----1----3----|------------1----|-------3----1----|--1----3----0----|-------0----1----|
G||-------0---------|-----------------|-----------------|------------0----|--2----0---------|
D||--0--------------|-------2---------|-------2---------|-------2---------|-----------------|
A||------------2----|--0--------------|-----------------|--0--------------|--0--------------|
E||-----------------|-----------------|--3--------------|-----------------|------------2----|


     Q    Q    Q       Q    Q    Q       Q    Q    Q       Q    Q    Q       Q    Q    Q
E||-----------------|-------0----2----|--3--------------|-----------------|--0--------------|
B||--3---------3----|--3---------3----|------------0----|--0----1----3----|-----------------|
G||------------0----|-------2---------|------------0----|-------0---------|------------0----|
D||-----------------|-----------------|-----------------|--0--------------|------------2----|
A||-------2---------|-----------------|-------2---------|------------2----|-------3---------|
E||--3--------------|--2--------------|--0--------------|-----------------|--5--------------|


     Q    Q    Q       Q    Q    Q       Q    Q    Q       Q    Q    Q       Q    Q    Q
E||-----------------|-----------------|-----------------|-----------------|-----------------|
B||------------0----|-----------------|-----------------|--0--------------|--1---------3----|
G||--0----2----0----|--0--------------|--0--------------|-----------------|------------0----|
D||-------2---------|-------4----2----|------------0----|------------2----|-----------------|
A||-----------------|--3---------5----|-------2---------|-------2---------|-------3---------|
E||--0--------------|-------0---------|--3--------------|--0--------------|--0--------------|


     Q    Q    Q       Q    Q    Q       Q    Q    Q       Q    Q    Q       Q    Q    Q
E||------------0----|--3--------------|-----------------|-----------------|-----------------|
B||--0--------------|-----------------|-------0---------|------------1----|-----------------|
G||------------0----|------------0----|--2---------0----|-----------------|-----------------|
D||-----------------|------------0----|-------3---------|--3----2----3----|--2--------------|
A||-------2---------|-------2---------|------------3----|-------3---------|-------2---------|
E||--0--------------|--0--------------|--1--------------|--1--------------|--2---------2----|


     Q    Q    Q       Q    Q    Q       Q    Q    Q       Q    Q    Q       Q    Q    Q
E||-----------------|-----------------|-----------------|-----------------|-----------------|
B||-----------------|-------0----1----|--3---------0----|-----------------|--0--------------|
G||-----------------|-----------------|------------0----|-------0----2----|------------0----|
D||--1--------------|--2--------------|-------0---------|-------0---------|------------3----|
A||--2---------2----|--2--------------|--2--------------|-----------------|-------3---------|
E||-------2---------|--0--------------|-----------------|--0--------------|--1--------------|


     Q    Q    Q       Q    Q    Q       H        Q       Q    Q    Q
E||-----------------|-----------------|----------------|-----------------|
B||-----------------|-----------------|----------------|-------0----0----|
G||-----------------|--0--------------|----------------|-----------------|
D||-------2----4----|------------2----|----------------|--1--------------|
A||-------3---------|-------2---------|--4-------------|--2--------------|
E||--0--------------|--0--------------|--2--------2----|-----------------|


     Q    E  E  E  E     Q    Q    Q       Q    E  E  E  E     Q    Q    Q
E||-------------------|-----------------|-------------------|-----------------|
B||--0----0-----0--1--|--3---------0----|-------------------|--0--------------|
G||----------2--------|------------0----|-------0-----0--2--|------------0----|
D||-------------------|-----------------|----------4--0-----|------------3----|
A||-------------------|-------2---------|-------2-----------|-------3---------|
E||--0----------------|--3--------------|--0----------------|--1--------------|


     Q    E  E  E  E     Q    Q    Q       Q    Q    Q       Q    Q    Q
E||-------------------|-----------------|-----------------|-----------------|
B||-------------------|-----------------|-----------------|-------0----1----|
G||-------------------|--0--------------|-----------------|-----------------|
D||-------2--0--2--4--|------------2----|------------4----|--1--------------|
A||-------3-----------|-------2---------|--4----1---------|--2--------------|
E||--0----------3-----|--0--------------|--2--------------|-----------------|


     Q    Q    Q       Q    Q    Q       Q    Q    Q       Q    Q    Q       Q    Q    Q
E||-----------------|--0---------0----|-----------------|-----------------|-----------------|
B||--3---------3----|------------3----|--0--------------|--0---------0----|--3---------3----|
G||------------0----|-------2---------|------------2----|-------0---------|------------0----|
D||-----------------|-------0---------|------------2----|--0--------------|-------2---------|
A||-------2---------|-----------------|-------2---------|-------2---------|--3--------------|
E||--3--------------|--2--------------|--0--------------|------------3----|-----------------|


     Q    Q    Q       Q    Q    Q       Q    Q    Q       Q    Q    Q       Q    Q    Q
E||--0---------0----|-----------------|-----------------|-----------------|-------0----2----|
B||-------3---------|--1----3----0----|-------0----1----|--3---------3----|--3---------3----|
G||-------0---------|------------0----|--2----0---------|------------0----|-------2---------|
D||-----------------|-------2---------|-----------------|-----------------|-----------------|
A||------------2----|--0--------------|--0--------------|-------2---------|-----------------|
E||--0--------------|-----------------|------------2----|--3--------------|--2--------------|


     Q    Q    Q       Q    Q    Q       Q    Q    Q       Q    Q    Q       Q    Q    Q
E||--3--------------|-----------------|--0--------------|-----------------|-----------------|
B||------------0----|--0----1----3----|-----------------|------------0----|-----------------|
G||------------0----|-------0---------|------------0----|--0----2----0----|--0--------------|
D||-----------------|--0--------------|------------2----|-------2---------|-------4----2----|
A||-------2---------|------------2----|-------3---------|-----------------|--3---------5----|
E||--0--------------|-----------------|--5--------------|--0--------------|-------0---------|

                                 ^       ^
     Q    Q    Q       Q    Q    Q       H.   
E||-----------------|--3----2----0----|--3--||
B||-----------------|-----------------|-----||
G||--0--------------|------------2----|--4--||
D||------------0----|-------2----0----|-----||
A||-------2---------|--3--------------|-----||
E||--3--------------|-----------------|--3--||


Legend:
-------

H - half
Q - quarter
E - 8th
. - dotted
^ - brush up
Login or Register to remove this ad.

4 comments on Setsuko to Seita

o-o Oh snap! This is

5

o-o Oh snap! This is literally my favorite animated movie.. It had me balling like a baby. ^^

You did a wonderful job, I love it!

amigo

esta es una muy buena cansion esta algo nostajica pero te dire que es una muy buena cansion deverdada tienes talento.......XD

Thanks man

5

great movie, great song, great arrangement..

Beautiful arrangement

5

A smooth arrangement of a beautiful song. Thanks so much, Kenor! I made a video recording of this one.