Ads

The Edge of the World (Grandia) Guitar Tab

Submitted: Apr 20, 2011 by Bhael

5
Average: 5 (1 vote)
Download | Listen
Game: Grandia
Composer(s): Noriyuki Iwadare
Style: Arrangement, Fingerstyle
Series: Grandia

Click here for a video example.

AutoScroll: Slow | Medium | Fast
                            The Edge of the World    
                                   Grandia                           
                              Noriyuki Iwadare




                            ^                     ^         ^               
                                                            |----3----|     
     Q    Q    Q    Q       H.           E  E     Q.     E  Q    Q    Q     
E||----------------------|---------------------|---------------------------|
B||------------0----3----|--1---------------0--|--1------3--0----1----0----|
G||-------0--------------|--2------------2-----|--2---------2--------------|
D||----------------------|--3------------------|--0---------2--------------|
A||----------------------|---------------------|---------------------------|
D||----------------------|---------------------|---------------------------|


                                             ^                   
  W                   Q    Q    Q    Q       H.           E  E   
-------------------|------------0----3----|--1---------------0--|
-------------------|----------------------|--3------------3-----|
--2----------------|--L----2--------------|--2------------------|
-------------------|----------------------|--0------------------|
--0----------------|--L-------------------|---------------------|
-------------------|----------------------|---------------------|


  ^                                                      
            |----3----|                                  
  Q.     E  Q    Q    Q         E  E  E  E  E  E  E  E   
--1------3--0----1----3----||---5-----------------------|
--3------------------------||---------------------------|
--3------------------------||*--------3-----3-----3-----|
---------------------------||*-----3-----3-----3-----3--|
--1---------3--------------||---1-----------------------|
---------------------------||---------------------------|


  E  E  E  E  E  E  Q       E  E  E  E  E  E  E  E   
--------0-----1-----5----|--3--------0--3-----------|
--3----------------------|--------------------------|
-------------------------|--------0-----------0-----|
-----3-----3-----3-------|-----2-----------2-----2--|
--1----------------------|--0-----------------------|
-------------------------|--------------------------|


  E  E  E  E  E  E  E  E       E  E  E  E  E  E  E  E   
--------------------1--3---||--3-----------------------|
-----------1---------------||-----------1--------------|
--------0-----0-----------*||--------0-----0-----------|
-----2-----------2--------*||-----2-----------2-----2--|
--0------------------------||--0-----------------0-----|
---------------------------||--------------------------|


                                            |--3--|                          
  E  E  E  E  E  E  E  E     Q    Q    Q    E  E  E     Q    Q    Q    Q     
--0-----------------------|--------------------------|----------------------|
-----------1--------------|--3-----------------------|----------------------|
--------2-----2-----------|--2--------------4--4--4--|--4-------------------|
-----2-----------2-----2--|-----------------0--0--0--|--0-------------------|
--0-----------------0-----|-----------------0--0--0--|--0-------------------|
--------------------------|--0----0----0----0--0--0--|--0----0----0----0----|


                 |--3--|                                                  
  Q    Q    Q    E  E  E     Q    Q    Q    Q       Q    Q    Q    E  E   
--------------------------|----------------------|-----------------------|
--3-----------------------|-----------------3----|--1-----------------0--|
--2--------------4--4--4--|--4---------4---------|-----------------2-----|
-----------------0--0--0--|--0----5--------------|------------3----------|
-----------------0--0--0--|--0-------------------|-------3---------------|
--0----0----0----0--0--0--|--0-------------------|--3--------------------|


  |----3----|    |----3----|                            
  Q    Q    Q    Q    Q    Q       H.            Q      
--------------------------------|----------------------|
--1---------3----0----1----0----|----------------------|
--------------------------------|--2-------------------|
--------------------------------|---------------(2)----|
-------0--------------2---------|--0-------------------|
--0--------------2--------------|----------------------|


   Q     Q    Q    Q       Q    Q    Q    E  E   
--------------0----3----|--1-----------------0--|
------------------------|-----------------3-----|
--(2)----2--------------|-----------------------|
------------------------|------------0----------|
------------------------|-------0---------------|
------------------------|--0--------------------|


  |----3----|    |----3----|                                                    
  Q    Q    Q    Q    Q    Q       Q    Q    Q    Q       Q    Q    Q    E  E   
--1---------3----0----1----3----|--5-------------------|-----------------------|
--------------------------------|----------------------|-----------------6--8--|
--------------------------------|----------------------|-------0---------------|
-------3------------------------|------------0----2----|--3---------7----------|
--1--------------3--------------|-------0--------------|-----------------------|
--------------------------------|----------------------|-----------------------|


   Q    Q    Q     Q       Q    E  E  Q    E  E     Q    Q    Q     Q     
------------------------|--3---------------0--1--|-----------------------|
--10--------------11----|------------------------|--8--------------10----|
------------------------|-------0----------------|-----------------------|
-------------8----------|----------2-------------|------------7----------|
--------8---------------|--3----------3----1-----|-------7---------------|
---8--------------------|------------------------|--7--------------11----|


  H.           E  E     H.           Q       H        H         
--1------------1--3--|--4------------4----|--4--------6--------|
--3------------------|--------------------|--------------------|
--2------------------|--6------------6----|--6--------6--------|
--0------------------|--6------------6----|--6-----------------|
---------------------|--4------------4----|--4--------4--------|
---------------------|--------------------|--------------------|


   |-----3-----|     |-----3-----|        |-----3-----|     |-----3-----|     
   Q     Q     Q     Q     Q     Q        Q     Q     Q     Q     Q     Q     
---8----------------------------------|--------------------------------------|
--------------------------------------|--------------------------------------|
--10----10----10----10----10----10----|--10----10----10----10----10----10----|
--10----10----10----10----10----10----|--10----10----10----10----10----10----|
--------------------------------------|--------------------------------------|
--10----------------------------------|--10----------------------------------|


   |-----3-----|     |-----3-----|        |-----3-----|     |-----3-----|     
   Q     Q     Q     Q     Q     Q        Q     Q     Q     Q     Q     Q     
--------------------------------------|--------------------------------------|
--------------------------------------|--------------------------------13----|
---9-----9-----9-----9-----9-----9----|---9-----9-----9-----9-----9----------|
--10----10----10----10----10----10----|--10----10----10----10----10----------|
--------------------------------------|--------------------------------------|
--10----------------------------------|--10----------------------------------|


   |-----3-----|     |-----3-----|        |-----3-----|     |-----3-----|     
   Q     Q     Q     Q     Q     Q        Q     Q     Q     Q     Q     Q     
--------------------------------------|--13----------------------------------|
--13----------------------------11----|--------------------------------13----|
--------------------------------------|--------------------------------------|
--------------11----------------------|--------------11----------------------|
--------11----------------11----------|--------11----------------11----------|
--11----------------11----------------|--11----------------11----------------|


   |-----3-----|     |-----3-----|        |-----3-----|     |-----3-----|     
   Q     Q     Q     Q     Q     Q        Q     Q     Q     Q     Q     Q     
--------------------------------------|--15----------------------------------|
--13----------------------------11----|--------------------------------------|
--------------------------------------|--------------------------------------|
--------------10----------------------|--------------10----------------10----|
--------10----------------10----------|--------10----------------10----------|
--10----------------10----------------|--10----------------10----------------|


  |-----3----|     |----3----|       |----3----|     |-----3----|     
  Q    Q     Q     Q    Q    Q       Q    Q    Q     Q    Q     Q     
----------------------------------|----------------------------------|
--9----8--------------------------|----------------------------------|
------------10----10--------------|-----------------------8----10----|
-----------------------------8----|------------8----11---------------|
------------------------8---------|-------8--------------------------|
--8----------------8--------------|--8---------------8---------------|


  |----3----|    |----3----|       |----3----|     |----3----|     
  Q    Q    Q    Q    Q    Q       Q    Q    Q     Q    Q    Q     
--------------------------------|---------------------------------|
--------------------------------|---------------------------------|
--8-----------------------------|-----------------------6----8----|
------------6--------------6----|------------6----10--------------|
-------6--------------6---------|-------6-------------------------|
--6--------------6--------------|--6---------------6--------------|


  |----3----|    |----3----|       |----3----|    |----3----|     
  Q    Q    Q    Q    Q    Q       Q    Q    Q    Q    Q    Q     
---------------------------4----|--------------------------------|
--6-----------------------------|--8-----------------------------|
------------6-------------------|------------8--------------8----|
-------6--------------6---------|-------8--------------8---------|
--4--------------4--------------|--6--------------6--------------|
--------------------------------|--------------------------------|


  |----3----|    |----3----|       |----3----|    |----3----|     
  Q    Q    Q    Q    Q    Q       Q    Q    Q    Q    Q    Q     
--3------------------------6----|--4-------------------4----6----|
--------------------------------|--------------------------------|
------------5-------------------|--------------------------------|
-------5--------------5---------|------------3-------------------|
--3--------------3--------------|-------3--------------3---------|
--------------------------------|--3--------------3--------------|


  |----3----|    |----3----|       |----3----|    |-----3----|     
  Q    Q    Q    Q    Q    Q       Q    Q    Q    Q    Q     Q     
--8-------------------4----6----|--8------------------------------|
--------------------------------|----------------------9----11----|
------------6-------------------|---------------------------------|
-------6--------------6---------|------------8--------------------|
--4--------------4--------------|-------8--------------8----------|
--------------------------------|--8--------------8---------------|


   |-----3-----|     |-----3-----|                              
   Q     Q     Q     Q     Q     Q        Q     Q    Q    Q     
---8----------------------------------|------------------------|
--------------------------------------|-------------------8----|
--10----10----10----10----10----10----|---9----------9---------|
--10----10----10----10----10----10----|--10----10--------------|
--------------------------------------|------------------------|
--10----------------------------------|------------------------|


                                                    ^                 
                                  |----3----|                         
  H.           E  E     Q.     E  Q    Q    Q       W                 
---------------------|------------0--------------|-------------------|
--6------------------|--6------8-------6---------|--3----------------|
---------------7--9--|----------------------9----|--0----------------|
---------------------|---------------------------|--0----------------|
---------------------|---------------------------|-------------------|
--8------------------|--5---------7--------------|--0----------------|


  W                   W                  
-------------------|-------------------||
--L----------------|--L----------------||
--L----------------|--L----------------||
--4----------------|--L----------------||
-------------------|-------------------||
-------------------|--L----------------||




Duration Legend
---------------
W - whole
H - half
Q - quarter
E - 8th
S - 16th
T - 32nd
X - 64th
. - note dotted
|-n-|  - n-tuplets


Tablature Legend
----------------
L - tied note
x - dead note
g - grace note
(n) - ghost note
> - accentuded note
NH - natural harmonic
AH - artificial harmonic
TH - tapped harmonic
SH - semi harmonic
PH - pitch harmonic
h - hammer on
p - pull off
b - bend
br - bendRelease
pb - preBend
pbr - preBendRelease
brb - bendReleaseBend
\n/ - tremolo bar dip
\n - tremolo bar dive
-/n - tremolo bar Release up
/n\ - tremolo bar inverted dip
/n - tremolo bar return
-\n - tremolo bar Release down
S - shift slide
s - legato slide
/ -  slide into from below or out of upwards
\ -  slide into from above or out of downwards
~ - vibrato
W - wide vibrato
tr - trill
TP - tremolo picking
T - tapping
S - slap
P - pop
< - fade in
^ - brush up
v - brush down
Login or Register to remove this ad.

1 comment on The Edge of the World

this is a great attangement

this is a great arrangement