Ads

Dom Ruins (Grandia) Guitar Tab

Submitted: Mar 22, 2010 by Bhael

5
Average: 5 (1 vote)
Download | Listen
Game: Grandia
Composer(s): Noriyuki Iwadare
Style: Arrangement, Fingerstyle
Series: Grandia

AutoScroll: Slow | Medium | Fast
                                  Dom Ruins                                     
                                   Grandia
                               Noriyuki Iwadare

                                                                


     E  S S S S S S S S S S S S S S    E  S S S S S S S S S S S S S S  
E||--0------0---------------0-------|--0------0---------------0-------|
B||-------1---1-------1---1---1-----|-------1---1-------1---1---------|
G||-----2-------2---2---2-------2---|-----2-------2---2---2-----------|
D||--2------------2---------------2-|--2------------2---------2---x-x-|
A||-----------------0---------------|-----------------0---------------|
D||---------------------------------|---------------------------------|


  E  S S S S S S S S S S S S S S    E  S S S S S S S S S S S S S S    
---------2---------------2-------|---------2---------------2--------||
-----------2-----------2---2-----|-----------2-----------2----------||
--2----2-----2---2---2-------2---|--2----2-----2---2---2-----------*||
-----4---------4---4-----------4-|-----4---------4---4---------x-x-*||
-----------------4---------------|-----------------4----------------||
--4------------------------------|--4----------------------4--------||


  ^                                                       
  E   E  E  S S E  E  S S S S    S E   S E  S S H         
-------------------1----------|--------------------------|
--1h--3--3----1-3--3--3-1-3-3-|----1h--3-3----1-3--------|
--2---------2------2----------|--2-2--------2---2--------|
--0---------------------------|----0------------0--------|
------------------------------|--------------------------|
--0-------------0-------0-----|----0------------0--------|


  ^                                ^                      
  E   E  E  S S E  E  S S S S    S E   S E  S S H         
------------------------------|--------------------------|
-------------------4----------|--------------------------|
--3h--5--5----3-5--5--5-3-5-5-|----3h--5-5----3-5--------|
--5---------5------5----------|--5-5--------5---5--------|
--3---------------------------|----3------------3--------|
--0-------------0-------0-----|----0------------0--------|


  ^                                ^                           
  E   E  E  S S E  E  S S S S    S E   S E  S S E  E  S S S S  
-------------------1----------|--------------------1----1-----|
--1h--3--3----1-3--3--3-1-3-3-|----1h--3-3----1-3-----3---3-3-|
--2---------2------2----------|--2-2--------2---2-------------|
--0---------------------------|----0------------0-------------|
------------------------------|-------------------------------|
--0-------------0-------0-----|----0------------0-------0-----|


  ^                                ^            ^               
  E   E  E  S S E  E  S S S S    S E   S E  S S E  E  S S S S   
------------------------------|--------------------------------|
-------------------4----------|--------------------4----4------|
--3h--5--5----3-5--5--5-3-5-5-|----3h--5-5----3-5-----5---5-3s-|
--5---------5------5----------|--5-5--------5---5--------------|
--3---------------------------|----3------------3--------------|
--0-------------0-------0-----|----0------------0-------0------|


  S S S E  E  E  E  S E  E     S S S E  E  H        S  
----------------------------|-------------------------|
----------------------------|-------------------------|
--2-2-2-2--2--3--3--3-3--3--|--4-4-4-4--4--5----------|
--2-2-2-2--2--3--3--3-3--3--|--4-4-4-4--4--5----------|
--0-0-0-0--0--1--1--1-1--1--|--2-2-2-2--2--3----------|
----------------------------|-----------------------x-|


  ^                                                                   
  E   E  E  S S E  E  S S S S    E  S S S S  E   E   S S  S  S  S  S  
-------------------1----1-3-5-|--8--8-8-5-8-10--10-----8-10-13-10-13-|
--1h--3--3----1-3-----3-------|---------------------10---------------|
--2---------2-----------------|--------------------------------------|
--0---------------------------|--0----0---0------0-----0--------0----|
------------------------------|--------------------------------------|
--0-------------0-------------|--------------------------------------|


   E   S  S  S  E   S  E   S  S  S  S  S S     E   S S S S  E   E  E  S S S S  
--15--15-15-13-15--13-15--15-13-10-13-10-8-|--10--10-8-5-8-10--10--5--3-5-3-1-|
---0------------0--------------------------|---8-------------------5----------|
---0------------0------------------10------|---9-------------------5----------|
---0------0-----0------0------0-----0----0-|---0-----0---0---------0----0---0-|
-------------------------------------------|----------------------------------|
-------------------------------------------|----------------------------------|


  E  S S S S E  E  S S S S S S    E  S S S S S S S S E  E  E   
-------------1-------------1-3-|--4--4-3-3-1-1-----1-3--5--8--|
--3--3-3-1-3----3--3-3-3-3-----|---------------3-3-3----------|
----------------2--------------|--2----------------2----------|
-----0---0---0--0----0---0---0-|-----0---0---0----------0-----|
-------------------------------|--0----------------0----------|
--0-------------0--------------|------------------------------|


                    ^                              ^               
  S S  S  S S  E  S E  E  S S E     E  S S S S S S E  E  S S S S   
--5-8-10-10-8-10--5-3--1------1--|--5--5-5-5-5-3-1----1-----------|
--------------------1-----1-3----|-----------------3-----3-1------|
----0---------------2------------|--0--------------0---------0-3~-|
--0-------0----0-------0----0----|-----0---0---0---0-----0-----0--|
--------------------0------------|--------------------------------|
--0------------0-----------------|--------------------------------|


                                           ^              ^                  
  S S S E  E  E  E  S E  E     S S S E  E  H        S     W                  
----------------------------|--------------------------|-------------------||
----------------------------|--------------------------|--3----------------||
--2-2-2-2--2--3--3--3-3--3--|--4-4-4-4--4--5-----------|--2----------------||
--2-2-2-2--2--3--3--3-3--3--|--4-4-4-4--4--5-----------|--0----------------||
--0-0-0-0--0--1--1--1-1--1--|--2-2-2-2--2--3-----------|-------------------||
----------------------------|-----------------------5h-|--0----------------||




Duration Legend
---------------
W - whole
H - half
Q - quarter
E - 8th
S - 16th
T - 32nd
X - 64th
. - note dotted
|-n-|  - n-tuplets


Tablature Legend
----------------
L - tied note
x - dead note
g - grace note
(n) - ghost note
> - accentuded note
NH - natural harmonic
AH - artificial harmonic
TH - tapped harmonic
SH - semi harmonic
PH - pitch harmonic
h - hammer on
p - pull off
b - bend
br - bendRelease
pb - preBend
pbr - preBendRelease
brb - bendReleaseBend
\n/ - tremolo bar dip
\n - tremolo bar dive
-/n - tremolo bar Release up
/n\ - tremolo bar inverted dip
/n - tremolo bar return
-\n - tremolo bar Release down
S - shift slide
s - legato slide
/ -  slide into from below or out of upwards
\ -  slide into from above or out of downwards
~ - vibrato
W - wide vibrato
tr - trill
TP - tremolo picking
T - tapping
S - slap
P - pop
< - fade in
^ - brush up
v - brush down
Login or Register to remove this ad.

2 comments on Dom Ruins

I just got myself this game

I just got myself this game some weeks ago, but didn't start playing it. This arrangement of yours made me want to start right now!
Very dynamic, I like arrangements that are "full", if you know what I mean. You must have had some hard work doing it! It is great! I'm going to try to play it right away!
Thank you for sharing it with us!

Thanks for the comment. I

Thanks for the comment. I played Grandia when I was small and completely forgot what a great soundtrack it had. Enjoy the game ;)