Ads

Outro Guitar Lick (Grand Theft Auto III) Guitar Tab

Submitted: Jul 24, 2012 by BerkYenikoylu

0
Download | Listen
Game: Grand Theft Auto III
Composer(s): Craig Conner, Stuart Ross
Style: Alternate picking, Transcription

AutoScroll: Slow | Medium | Fast
Standard Tuning                                                 
                                                           |--3--|  
     S              S  S  S  S  S  S  S  S  S  S  S  S  S  S  S  S  
|------------------------------12----------------------12----------|
|------------------12-15-12-------15----12-15-12----12----15-12----|
|*--14----------------------14-------14----------14-------------14-|
|*-----------------------------------------------------------------|
|------------------------------------------------------------------|
|------------------------------------------------------------------|


   W                  
--12~----------------|
---------------------|
---------------------|
---------------------|
---------------------|
---------------------|
Login or Register to remove this ad.