Sandstorm (Gradius III) Guitar Tab

Submitted: May 22, 2011 by Brainsick Fungus

5
Average: 5 (1 vote)
Download | Listen
Game: Gradius III
Composer(s): Club Kukeiha
Style: Transcription

AutoScroll: Slow | Medium | Fast
Sandstorm
Gradius III
Composers:Junichiro Kaneda,S. Fukami,Miki Higashino,Keizo Nakamura,Mutsuhiko Izumi
Tabbed by Brainsick Fungus 
05/01/11



e--------------15----------------17----------------19----------------20---------|
B-----------15-------------13-18-------------15-20-------------18-22------------|
G-12--12-16---------14--14------------16--16------------17--17------------------|
D-------------------------------------------------------------------------------|
A-------------------------------------------------------------------------------|
E-------------------------------------------------------------------------------|

e--------------------------15---------------------------------------------------|
B-----15---15--13--12--13------------15---13--12--13----------------------------|
G-12-----------------------------12-------------------14------------------------|
D-------------------------------------------------------------------------------|
A-------------------------------------------------------------------------------|
E-------------------------------------------------------------------------------|

e--------------14-15--------------------------------------------17-19-20-22-----|
B-13-15-17--17-------15--------------------------------17-19-20-----------------|
G-------------------------17-16-14------------16-17-19--------------------------|
D-----------------------------------17--17-19-----------------------------------|
A-------------------------------------------------------------------------------|
E-------------------------------------------------------------------------------|

e--------14-15------14--15---15--17--18--17--18--20---20-19-20-22---------------|
B-17--17-------15---------------------------------------------------------------|
G-------------------------------------------------------------------------------|
D-------------------------------------------------------------------------------|
A-------------------------------------------------------------------------------|
E-------------------------------------------------------------------------------|

e---------------------------------------15--14----------------------------------|
B---------------15--13-12----------------------15-------------------------------|
G-12---12-14-12-----------12---12-14-12-----------14-12-------------------------|
D-------------------------------------------------------------------------------|
A-------------------------------------------------------------------------------|
E-------------------------------------------------------------------------------|

e---------------------------12-15-14-15-17--------------------------------------|
B----------15--13-12------------------------------------------------------------|
G-12-14-12-----------12--12-----------------------------------------------------|
D-------------------------------------------------------------------------------|
A-------------------------------------------------------------------------------|
E-------------------------------------------------------------------------------|
Login or Register to remove this ad.