City of Khorinis (Gothic II) Guitar Tab

Submitted: Feb 10, 2014 by Matatiahu (Last updated: Apr 16, 2014)

5
Average: 5 (2 votes)
Download | Listen
Game: Gothic II
Composer(s): Kai Rosenkranz
Style: Arrangement, Artificial harmonics, Fingerstyle, Natural harmonics

Click here for a video example.

AutoScroll: Slow | Medium | Fast
			City of Khorinis
			    Gothic II
			 Kai Rosenkranz

Dropped D



E||--------------------------------|---------------------|
B||--------------------------------|---------------------|
G||------------------<2>----<0>----|---------------------|
D||----------<12>------------------|------<2>------------|
A||--<>12--------------------------|---------------------|
D||--------------------------------|---------------------|

----------------------------|----------------------------|
----------3-----------------|----------------------------|
-------2-----2--------------|--0--2----------------------|
--<>7-----------0-----------|--------3-------------------|
--<>12----------0--------0--|--1-------------------------|
----0------------------5----|-------------0--------------|

------0-----0---------0-----0------|------1-----1---------1-----1------|
----------3-----3---------3-----3--|----------3-----3---------3-----3--|
----2---2-----2-----2---2-----2----|----2---2-----2-----2---2-----2----|
------------------0----------------|------------------0----------------|
-----------------------------------|-----------------------------------|
--0--------------------------------|--0--------------------------------|   x2

------5-----5---------5-----5------|------3-----3---------3-----3------|
----------3-----3---------3-----3--|----------3-----3---------3-----3--|
----2---2-----2-----2---2-----2----|----2---2-----2-----2---2-----2----|
------------------0----------------|------------------0----------------|
-----------------------------------|-----------------------------------|
--0--------------------------------|--0--------------------------------|

------1-----1---------1-----1------|------0-----0---------0-----0------|
----------3-----3---------3-----3--|----------3-----3---------3-----3--|
----2---2-----2-----2---2-----2----|----2---2-----2-----2---2-----2----|
------------------0----------------|------------------0----------------|
--0--------------------------------|--0--------------------------------|
-----------------------------------|-----------------------------------|

--------0-----------0-----------0-----------0-----|
-----3-----3-----3-----3-----3-----3-----3-----3--|
--------------------------2-----------2-----------|
--0-----------0-----------------------------------|
--------------------------0-----------0-----------|
--0-----------0-----------------------------------|

--------0-----------0-----------0-----------0-----|
-----3-----3-----3-----3-----3-----3-----3--------|
--2-----------2-----------5-----------5-----------|
--0-----------0-----------------------------------|
--------------------------0-----------0-----------|
--0-----------0-----------------------------------|

-----------------------------------|--------------------------3-1------|
----------1-0-------------1-0------|----------1-0----------------------|
------2---------2-----2---------2--|------2---------2-----2---------2--|
----0---0-----0-----0---0-----0----|----0---0-----0-----0---0-----0----|
--0---------------0----------------|--0---------------0----------------|
-----------------------------------|-----------------------------------|

-----------------------------------|------------------------5-3--------|
----------1-0-------------1-0------|----------1-0---------------6-3-6--|
------2---------2-----2---------2--|------2---------2-----2------------|
----0---0-----0-----0---0-----0----|----0---0-----0-----0--------------|
--0---------------0----------------|--0---------------0----------------|
-----------------------------------|-----------------------------------|

-----------------------------------|--------------------------3-1------|
----------1-0-------------1-0------|----------1-0----------------------|
------2---------2-----2---------2--|------2---------2-----2---------2--|
----0---0-----0-----0---0-----0----|----0---0-----0-----0---0-----0----|
--0---------------0----------------|--0---------------0----------------|
-----------------------------------|-----------------------------------|

-----------------------------------|-----------5--3--------------------|
----------1-0-------------1-0-5----|--6-5-3---------6-3----------------|
------2---------2-----2------------|-----------------------------------|
----0---0-----0-----0---0----------|-----------------------------------|
--0---------------0----------------|-----------------------------------|
-----------------------------------|--0---------------0----------------|

--------------5--------3/5--|--6--------------------------|
--------3-----------3-------|--3--------------------------|
-----2-----2-----2----------|--3-----3--------------------|
--0-------------------------|--0--0-----0-----------------|
--0-------------------------|--0--------------------------|
----------------------------|--------------0--------------|

------0-----0---------0-----0------|------1-----1---------1-----1------|
----------3-----3---------3-----3--|----------3-----3---------3-----3--|
----2---2-----2-----2---2-----2----|----2---2-----2-----2---2-----2----|
------------------0----------------|------------------0----------------|
-----------------------------------|-----------------------------------|
--0--------------------------------|--0--------------------------------|   x2

------5-----5---------5-----5------|------3-----3---------3-----3------|
----------3-----3---------3-----3--|----------3-----3---------3-----3--|
----2---2-----2-----2---2-----2----|----2---2-----2-----2---2-----2----|
------------------0----------------|------------------0----------------|
-----------------------------------|-----------------------------------|
--0--------------------------------|--0--------------------------------|

------1-----1---------1-----1------|------0-----0---------0-----0------|
----------3-----3---------3-----3--|----------3-----3---------3-----3--|
----2---2-----2-----2---2-----2----|----2---2-----2-----2---2-----2----|
------------------0----------------|------------------0----------------|
--0--------------------------------|--0--------------------------------|
-----------------------------------|-----------------------------------|

--------0---------------0----------|--------0---------------0----------|
------6---6-----------6---6--------|------6---6-----------6---6--------|
----7-------7---7---7-------7---7--|----7-------7---7---7-------7---7--|
--------------0--------------------|--------------0--------------------|
-----------------------------------|-----------------------------------|
--0---------------0-----------0----|--0---------------0-----------0----|

--------5---------------5----------|--------8-----------8--------------|
------6---6-----------6---6--------|------6---6-------6---6---6--------|
----7-------7---7---7-------7---7--|----7-------7---7-------7----------|
--------------0--------------------|--------------0--------------------|
-----------------------------------|-----------------------------------|
--0---------------0-----------0----|--0--------------------------------|

--10--------------|
------------------|
--7---------------|
--0---------------|
--0---------------|
--0---------------|
Login or Register to remove this ad.

2 comments on City of Khorinis

Great stuff, Gothic 2 is

5

Great stuff, Gothic 2 is easily one of my top 5 games of all times, it's a bit strange that there are so few arrangements of the series.

I'm glad that you feel that,

I'm glad that you feel that, thanks ;) It's strange for me too. Gothic 2 has no arrangement (except mine).