Ads

Vista Point (Gothic 3) Guitar Tab

Submitted: Jul 08, 2012 by Bhael (Last updated: Mar 26, 2014)

5
Average: 5 (11 votes)
Download | Listen
Game: Gothic 3
Composer(s): Kai Rosenkranz
Style: Arrangement, Fingerstyle, Natural harmonics

Click here for a video example.

AutoScroll: Slow | Medium | Fast
                                  Vista Point                                   
                                   Gothic 3
                                 Kai Rosenkranz

Arranged by Harry Murrell

Capo on third fret



     E  E  E  E  E  E  E  E     E  E  E  E  Q    E  E   
E||--------------------------|-------------------------|
B||--------------0-----1-----|----------------------0--|
G||--------2-----------------|--------2-----2----L-----|
D||-----2-----2-----2-----2--|-----2-----2-------------|
A||--0-----------------------|--0----------------------|
E||--------------------------|-------------------------|


           |--3-|          |--3-|                            
  E  E  E  S S  S E  E  E  S S  S    E  E  E  E  Q    E  E   
--------5----3h-5-3---------------|-------------------------|
--1---------------------0----1p-0-|--1----------------1--0--|
---------------------0-----0------|-----------0--2----------|
-----2-----2----------------------|--------3----------------|
--0-------------------------------|-----3-------------------|
------------------0---------------|--1----------------------|


                                            |--3-|        
  E  E  E  E  E  E  E  E     E  E  E  E  E  S S  S E  E   
--------5-----3-----------|-----------0------------------|
--1-----------------0-----|--1-----3-----3----5p-3----0--|
-----------------0-----0--|-----0------------------5-----|
-----2-----2--------------|------------------------------|
--0-----------------------|--3--------------5------------|
--------------0-----------|--------------3---------------|


                                                     ^                      
  Q    Q    E  E  E  E     E  E  E  E  Q    E  E     Q    E  E  E  E  Q     
------------------------|-------------------------|----------0-------------|
-------1----0-----------|----------------------0--|--1----L-----3-----1----|
--2------------------0--|--2----------------------|--2---------------------|
--0------------2--------|-----------3-------------|--0---------------------|
------------------2-----|--------3-----3----L-----|----------------3-------|
------------0-----------|-----1-------------------|-------------1----------|


  E  E  E  S S E  E  Q       E  E  E  E  E  E  E  E   
--------------------------|--------------------------|
--1--------0---0----------|--------------0-----1-----|
--------0----2-------0----|--------2-----------------|
-----0------------0-------|-----2-----2-----2-----2--|
--------------------------|--0-----------------------|
--3-----------------------|--------------------------|


                             ^                                
                                      |--3-|          |--3-|  
  E  E  E  E  E  E  E  E     E  E  E  S S  S E  E  E  S S  S  
--0-----------------------|--------5----3h-5-3---------------|
--------1-----0--------0--|--1---------------------0----1p-0-|
--------------------2-----|--2-------------------------------|
-----2-----2-----2--------|--2--2----------------------------|
--0-----------------------|--0--------0---------2-----2------|
--------------------------|------------------0---------------|


                                   ^                  
  E  E  E  E  E  E  E  E     E  E  E  E  E  E  E  E   
--------------------------|--------5-----3-----------|
--1-----------------1--0--|--1-----5-----------0-----|
-----------0--2--0--------|--------5--------------0--|
--------3-----------3-----|-----2-----------2--4-----|
-----3-----------------3--|--0--------0--------------|
--1-----------------------|--------------0-----------|


                 |--3-|                                   
  E  E  E  E  E  S S  S E  E     E  E  E  E  E  E  E  E   
-----------0------------------|--------------------------|
--1-----3-----3----5p-3----0--|-----------1--0--------3--|
--------0---------------5-----|--2-----------------1-----|
-----2------------------------|--------0--------2--------|
--3--------------5------------|--------------------------|
--------------3---------------|-----2--------0-----------|


  ^                        ^                                                   
                                                          |--3--|              
  E  E  E  E  Q    Q       Q    E  E  E  E  Q       E  E  E  E  E  E  E  Q     
--0---------------------|----------0-------------|----------------------------|
--1----------------0----|--1----------3-----1----|--1--------3--1--0----------|
--2--------2------------|--2---------------------|--------0--------------0----|
--------3-----3---------|--0----------------3----|-----0--------------0-------|
-----3------------------|-------0--------3-------|----------------------------|
--1---------------------|-------------1----------|--3-------------------------|


                             ^                                        
  E  E  E  E  E  E  E  E     W                   E  E  H        Q     
--------------------------|--0----------------|----------------------|
--------------0-----1-----|--1----------------|--1-------------------|
--------2-----------------|--2----------------|----------------------|
-----2-----2-----2-----2--|--2----------------|----------------------|
--0-----------------------|--0----------------|--------3--------L----|
--------------------------|-------------------|-----1----------------|


  E  E  H        Q       E  E  E  E  E  Q.        E  E  E   E  E  Q.      
----------------------|------------------------|-------------------------|
--1-----0--------L----|--1--------------1------|--3---------0------------|
--------0--------L----|--------2--4--L---------|-------------------------|
-----0----------------|-----2------------------|--------2s--4--L--0------|
----------------------|--0---------------------|-----2-------------------|
--3-------------------|------------------------|--0----------------------|


  ^                                                                             
  E  E  E  E  E  E  E  E     E  E  E  E  E  E  Q       E  E  E  E  E  E  E  E   
--------------------------|-------------------------|--------------0-----------|
--1-----------------------|--1-----0----------------|-----------0-----0-----0--|
-----------0--2--0--------|--------------------0----|--------2-----------2-----|
--3-----3-----------3-----|-----0--------0----------|--2-----------------------|
-----3-----------------3--|-----------2-----2-------|-----0--------------------|
--1-----------------------|--3----------------------|--------------------------|


                                   ^                  
  E  E  E  E  E  E  E  E     E  E  E  E  E  E  E  E   
--------------0-----------|--------5-----3-----------|
-----------0-----0-----0--|--------0--------------0--|
--------5-----------5-----|--5-----------------0-----|
-----7--------------------|-----7-----7-----4--------|
--0-----------------------|--0-----------------------|
--------------------------|--------------0-----------|


                             ^     ^                       NH  
  E  E  E  E  E  E  E  E     E  E  E  E  E  T T  T T E     E   
--------------------------|--------5-----3----2h-3-2-0--------|
--1-----------------------|--1-----0-----3-----------0--------|
--------0-----------------|-----0-----5-----0-----------------|
-----3-----3--2--------0--|--2--------------------------<>12--|
--------------------3-----|--0--------------------------------|
--1--------------1--------|--------------0--------------------|


                                    ^                      
                    |--3-|                                 
  S S S  S E  E  E  S S  S E  E     Q    Q    E  E  E  E   
--------------0------------------|--0---------------------|
--1--------3-----3----5p-3----3--|-------1----0-----------|
-----------0---------------5--4--|--2------------------0--|
------0h-2-----------------------|--0------------2--------|
----3---------------5------------|------------------2-----|
-----------------3---------------|------------0-----------|


                           ^                                                 
  E  E  E  E  Q    Q       Q    E  E  E  E  Q       E  E  E  S S E  E  Q     
------------------------|----------0-------------|--------------------------|
-------------------0----|--1----------3-----1----|--1--------0---0----------|
--2---------------------|--2---------------------|--------0----2-------0----|
-----------3------------|--0----L----------------|-----0------------0-------|
--------3-----3---------|----------------3-------|--------------------------|
-----1------------------|-------------1----------|--3-----------------------|


  E  E  E  E  E  E  E  E     W                  
--------------------------|-------------------||
-----------0-----0--------|-------------------||
--------2-----5--------0--|-------------------||
-----2--------------7-----|--7----------------||
--0-----------------------|--0----------------||
--------------------------|-------------------||
Login or Register to remove this ad.

2 comments on Vista Point

I could play this all day.

I could play this all day. Sooooooo good.

awesome tab !

5

It seems like these 5 stars became an habit for rating of the Bhael arrangements :)