Ads

Facility (Goldeneye 007) Guitar Tab

Submitted: Apr 22, 2021 by Busking4Scrap (Last updated: Apr 30, 2021)

0
Download | Listen
Game: Goldeneye 007
Composer(s): Grant Kirkhope, Robin Beanland, Graeme Norgate
Style: Arrangement, Fingerstyle

AutoScroll: Slow | Medium | Fast
Title: GoldenEye 007 Facility

Artist: arr: busking for scrap

Tempo = 120

Hey new to tabbing tunes, hope you guys like it.
Constructive criticism is welcomed.

not sure why the tabs all messed up, I've put the pdf on here as well.

E |----------------|----------------------------|----------------|
B |----------------|----------------------------|----------------|
G |----------------|----------------------------|----------------|
D |----------------|----------------------------|----------------|
A |--3--3----------|--3-----1--3----------------|--3--3----------|
E |----------------|----------------------------|----------------|


----------------------------|----------------|----------------------------|
----------------------------|----------------|----------------------------|
----------------------------|--0L-0L-0-------|--1L----1L-1L-1-------------|
-----------------1--0-------|----------------|----------------------------|
--3-----1--3-----------1----|--3--3----------|--3-----1--3----------------|
----------------------------|----------------|----------------------------|


----------------|----------------------------|----------------|
----------------|----------------------------|----------------|
--2L-2L-2-------|--1L----1L-1L-1L-1L-1L-1----|--0L-0L-0-------|
----------------|-----------------1--0-------|----------------|
--3--3----------|--3-----1--3-----------1----|--3--3----------|
----------------|----------------------------|----------------|


----------------------------|----------------|
----------------------------|----------------|
--1L----1L-1L-1-------------|--2L-2L-2-------|
----------------------------|----------------|
--3-----1--3----------------|--3--3----------|
----------------------------|----------------|


--------------------------------------3--3-----3----|
----------------------------------------------------|
--1L----------1L----1L----1L----1L----1L-1L----1----|
--------------------------------1-------------------|
--3-----------1-----3-------------------------------|
----------------------------------------------------|


--3--3L-3-------------------|----------------------------|
----------------------------|--1L----1L-1L-1-------------|
----------------------------|--1L----1L-1L-1-------------|
----------------------------|----------------------------|
-----------3----------------|--3-----1--3----------------|
----------------------------|----------------------------|


----------------------------------------------------|
--1-----3--3--3-----3-----------1-----1-----1-------|
--2L----2L-2----------------------------------------|
----------------------------------------------------|
--3L----3L-3--3L----3-------------------------------|
----------------------------------------------------|


----------------------------------------------------|----------------|
--1-----4--4--4-----4-----------3-----3-----3-------|--1-------------|
--1L----1L-1--------------------------------1-------|--0L-0L-0-------|
--------------------------------1-----0-------------|----------------|
--3L----3L-3--1-----3-----------------------1-------|--3--3----------|
----------------------------------------------------|----------------|


----------------------------|----------------|
--1L----1L-1L-1-------------|--1L-1L-1-------|
--1L----1L-1L-1-------------|--2L-2L-2-------|
----------------------------|----------------|
--3-----1--3----------------|--3--3----------|
----------------------------|----------------|


--------------------------------------3--3-----3----|
----------------------------------------------------|
--1L----------1L----1L----1L----1L----1L-1L----1----|
--------------------------------1-------------------|
--3-----------1-----3-------------------------------|
----------------------------------------------------|


--3--3----------------------|----------------------------|
----------------------------|--1L----1L-1L-1-------------|
----------------------------|--1L----1L-1L-1-------------|
----------------------------|----------------------------|
--------3-------------------|--3-----1--3----------------|
----------------------------|----------------------------|


----------------------------------------------------|
--1-----3--3--3-----3-----------1-----1-----1-------|
--2L----2L-2----------------------------------------|
----------------------------------------------------|
--3L----3L-3--3L----3-------------------------------|
----------------------------------------------------|


----------------------------------------------------|----------------|
--1-----4--4--4-----4-----------3-----3-----3-------|--1-------------|
--1L----1L-1--------------------------------1-------|--0L-0L-0-------|
--------------------------------1-----0-------------|----------------|
--3L----3L-3--1-----3-----------------------1-------|--3--3----------|
----------------------------------------------------|----------------|


--0L----0L-0----------------|----------------|
--1L----1L-1--1-------------|--1L-1L-1-------|
--1L----1L-1L-1-------------|--2L-2L-2-------|
----------------------------|----------------|
--3-----1--3----------------|--3--3----------|
----------------------------|----------------|


--------------------------------------3--3-----3----|
----------------------------------------------------|
--1L----------1L----1L----1L----1L----1L-1L----1----|
--------------------------------1-------------------|
--3-----------1-----3-------------------------------|
----------------------------------------------------|


--3--3----------------------|----------------------------|
----------------------------|--1L----1L-1L-1-------------|
----------------------------|--1L----1L-1L-1-------------|
----------------------------|----------------------------|
--------3-------------------|--3-----1--3----------------|
----------------------------|----------------------------|


----------------------------------------------------|
--1-----3--3--3-----3-----------1-----1-----1-------|
--2L----2L-2--2L----2-----2L----2L----2L----2-------|
----------------------------------------------------|
--3L----3L-3--3L----3-------------------------------|
----------------------------------------------------|


----------------------------------------------------|----------------|
--1-----4--4--4-----4-----------3-----3-----3-------|--1-------------|
--1L----1L-1--1-----1-----1-----------------1-------|--0L-0L-0-------|
--------------------------------1-----0-------------|----------------|
--3L----3L-3--1-----3-----------------------1-------|--3--3----------|
----------------------------------------------------|----------------|


--0L----0L-0----------------|----------------|----------------------------|
--8L----8L-8----------------|--1L-1L-1-------|--1L----1L-1L-1L-1L-1L-1----|
--------------5-------------|--2L-2L-2-------|--1L----1L-1L-1L-1L-1L-1----|
----------------------------|----------------|-----------------1--0-------|
----------------------------|--3--3----------|--3-----1--3-----------1----|
--8-----6--8----------------|----------------|----------------------------|


----------|----------------------------|----------------------------|
--1-------|----------------------------|----------------------------|
----------|-----------------------4----|--3-------------------------|
----------|----------------------------|-----1--4--5----------------|
----------|-----------------3--6-------|----------------------------|
----------|----------------------------|----------------------------|


----------------------------------------------------|
----------------------------------------------------|
----------------------------------------------------|
--------------------------1-----3--1--0-------------|
----------------------------------------------------|
----------------------------------------------------|


----------------------------|----------------|----------------------------|
----------------------------|----------------|----------------------------|
----------------------------|----------------|-----------4--3-------------|
----------------------------|----------------|-----------------1--4--5----|
-----------------3-----3----|----------------|-----3--6-------------------|
----------------------------|--5-------------|----------------------------|


-------|----------------------------------------------------|
-------|----------------------------------------------------|
-------|----------------------------------------------------|
-------|--1-----3--1--0-------------------------------------|
-------|----------------------------------------------------|
-------|----------------------------------------------------|


----------------------------||
----------------------------||
----------------------------||
----------------------------||
-----------2--3-------------||
-----3----------------------||

Login or Register to remove this ad.

2 comments on Facility

classic

classic

what do you mean the tabs are messed up?

the format looked al wrong

the format looked al wrong when pasting it on here looks fine now