Ads

Depot (Goldeneye 007) Guitar Tab

Submitted: Jan 15, 2010 by LTRobson

5
Average: 5 (1 vote)
Download | Listen
Game: Goldeneye 007
Composer(s): Grant Kirkhope, Robin Beanland, Graeme Norgate
Style: Alternate picking, Transcription

AutoScroll: Slow | Medium | Fast
GoldenEye 007 - Depot (N64)
Tabbed by LTRobson 16/06/07

Standard tuning

|------------------------------------------------------|
|------------------------------------------------------|
|------------------2----------------3------------------|
|-2--------------------------------------------------4-|
|------------------0----------------1------------------|
|-0--------------------------------------------------2-|


|-----------------------------------|
|-----------------------------------|
|-9-9----9-9-7-7-9-9----9-9-7-7-9-9-|
|-----------------------------------|
|-7-7----7-7-5-5-7-7----7-7-5-5-7-7-|
|-----------------------------------|

|---------------------------|
|---------------------------|
|-9-9-7-7-9-9-7-7-9-9-10-10-|
|---------------------------|
|-7-7-5-5-7-7-5-5-7-7--8--8-|
|---------------------------|

|-----------------------------|
|-----------------------------|
|-9-9-10-10-9-9---------------|
|--------------------11-------|
|-7-7--8--8-7-7-9/12-------12-|
|-----------------------------|

|------------------------|
|------------------------|
|------------------------|
|-7-7-8-8-7-7-----8------|
|-------------7/9------9-|
|-5-5-6-6-5-5------------|


|------------------------------------|
|------------------------------------|
|------------------------------------|
|-2-----2---2----------2-----2---2---|
|-2--2--2-2-2-2--------2--2--2-2-2-2-|
|-0--0----0---0--------0--0----0---0-|
  -  -  - - - -        -  -  - - - -

|--------------------------------|
|--------------------------------|
|--------------------------------|
|-2-----2---2----------2-----2---|
|-2--2--2-2-2-2--------2--2--2-2-|
|-0--0----0---0--------0--0----0-|
  -  -  - - - -        -  -  - -

|-------------------|
|------------7---10-|
|--------7-----7----|
|---9------9--------|
|-7---10------------|
|-------------------|


|-------------7--6----------------------7-8----------|
|-------------------------7-8-10------------10--8--7-|
|----9-----------------------------------------------|
|-9--------------------------------------------------|
|----------------------------------------------------|
|----------------------------------------------------|

|-------------7--6----------------------7-8-7-|
|-------------------------7-8-10--------------|
|----9----------------------------------------|
|-9-------------------------------------------|
|---------------------------------------------|
|---------------------------------------------|

|-------------7--6----------------------7-8----------|
|-------------------------7-8-10------------10--8--7-|
|----9-----------------------------------------------|
|-9--------------------------------------------------|
|----------------------------------------------------|
|----------------------------------------------------|

|-------------7--6----------------------------12-|
|-------------------------7-8-10--------10-12----|
|----9-------------------------------------------|
|-9----------------------------------------------|
|------------------------------------------------|
|------------------------------------------------|


|------------------------------------------------------------|
|------------------------------------------------------------|
|------------------------------------------------------------|
|-10--------9--7-10--------9--2--2--2--2--2--2--2-2-2--2-2-2-|
|------------------------------------------------------------|
|--8--------7--5--8--------7--0--0--0--0--0--0--0-0-0--0-0-0-|
                              -  -  -  -  -  -  - - -  - - -

|------------------------------------------------------------|
|------------------------------------------------------------|
|------------------------------------------------------------|
|-10--------9--7-10--------9--2--2--3--3--2--2--2-2-2--2-2-2-|
|------------------------------------------------------------|
|--8--------7--5--8--------7--0--0--1--1--0--0--0-0-0--0-0-0-|
                              -  -  -  -  -  -  - - -  - - -

|-----------------------------------------|
|-----------------------------------------|
|-----------------------------------------|
|-10----9--7--6----7--9--2----3----4----3-|
|-----------------------------------------|
|--8----7--5--4----5--7--0----1----2----1-|

|------------------------------------|
|------------------------------------|
|------------------------------------|
|-10----9--7--6----7--9--2----3----2-|
|------------------------------------|
|--8----7--5--4----5--7--0----1----0-|
Login or Register to remove this ad.