Ads

Vale (Golden Sun) Guitar Tab

Submitted: Aug 12, 2011 by Kiku

5
Average: 5 (3 votes)
Download | Listen
Game: Golden Sun
Composer(s): Motoi Sakuraba
Style: Fingerstyle, Transcription

AutoScroll: Slow | Medium | Fast
Vale
Golden Sun (Ougon no Taiyou: Hirakareshi Fuuin)
Composed by Motoi Sakuraba
Tabbed by Kiku
2011-08-12

BPM: 102
Time Signature: 6/8

I strongly suggest using the .gp5 or the .pdf to practice with. Also, this would
make a great duet if you can find someone with a flute...


                                     Vale                                       


Guitar (Capo 3)
      E  E  E  E  E  E     E  E  E  E  E  E     E  E  E  E  E  E   
E||---------------------|-----------0--2-----|--------------------|
B||---------0-----------|--------3--------3--|--------0-----------|
G||*--------------2-----|-----2--------------|--------------2-----|
D||*-----2-----2-----2--|--0-----------------|-----2-----2-----2--|
A||---0-----------------|--------------------|--0-----------------|
E||---------------------|--------------------|--------------------|


  E  E  E  E  E  E     E  E  E  E  E  E     E  E  E  E  E  E   
--------------------|--------------------|--------------------|
--------------------|--------0-----------|--------------------|
--------2-----0-----|--------------2-----|--------2-----0-----|
-----0-----0-----0--|-----2-----2-----2--|-----0-----0-----0--|
--------------------|--0-----------------|--------------------|
--3-----------------|--------------------|--3-----------------|


  E  E  E  E  E  E     E  E  E  E  E  E     E  E  E  E  E  E   
--------------------|-----------------0--|--------------------|
--------3-----------|--------0-----0-----|--------0-----------|
--------------3-----|-----2-----1--------|--------------2-----|
-----3-----3-----3--|--2-----------------|-----2-----2-----2--|
--1-----------------|--------------------|--0-----------------|
--------------------|--------------------|--------------------|


  E  E  E  E  E  E     E  E  E  E  E  E     E  E  E  E  E  E   
-----------0--2-----|--------------------|--------------------|
--------3--------3--|--------0-----------|--------------------|
-----2--------------|--------------2-----|--------2-----0-----|
--0-----------------|-----2-----2-----2--|-----0-----0-----0--|
--------------------|--0-----------------|--------------------|
--------------------|--------------------|--3-----------------|


  E  E  E  E  E  E     E  E  E  E  E  E     E  E  E  E  E  E   
--------------------|--------------------|--------1-----------|
--------0-----------|--------------------|--------------3-----|
--------------2-----|--------2-----0-----|-----2-----2-----2--|
-----2-----2-----2--|-----0-----0-----0--|--0-----------------|
--0-----------------|--------------------|--------------------|
--------------------|--3-----------------|--------------------|


  E  E  E  E  E  E     E  E  E  E  E  E     E  E  E  E  E  E   
-----------------0--|-----------0--------|--------------0-----|
--------0-----0-----|--------0-----1--0--|--------0--1-----1--|
-----2-----1--------|-----0--------------|-----0--------------|
--2-----------------|--------------------|--------------------|
--------------------|--3-----------L--3--|--3-----------L--3--|
--------------------|--------------------|--------------------|


  E  E  E  E  E  E     E  E  E  E  E  E     E  E  E  E  E  E   
--------------------|--------------0--2--|--------------------|
-----------3--2-----|-----------0--------|-----------3--------|
--------4--------4--|--------------------|--------3-----3--2--|
-----4--------------|-----0--4-----------|-----3--------------|
--2-----------------|--2--------2--------|--1-----------L--1--|
--------------------|--------------------|--------------------|


  E  E  E  E  E  E     E  E  E  E  E  E     E  E  E  E  E  E   
--------------1-----|-----------------0--|-----------0--------|
-----------3--------|--------------2-----|--------------------|
--------3--------3--|--------1--2--------|--------2-----2--1--|
-----3--------------|-----2--------------|-----2--------------|
--1--------1--------|--0-----------L--0--|--0-----------0-----|
--------------------|--------------------|--------0-----------|


  E  E  E  E  E  E     E  E  E  E  E  E     E  E  E  E  E  E   
-----------0--------|--------------0-----|--------------------|
--------0-----1--0--|--------0--1-----1--|-----------3--2-----|
-----0--------------|-----0--------------|--------4--------4--|
--------------------|--------------------|-----4--------------|
--3-----------L--3--|--3-----------L--3--|--2-----------------|
--------------------|--------------------|--------------------|


  E  E  E  E  E  E     E  E  E  E  E  E     E  E  E  E  E  E   
--------------0--2--|--------------------|--------------1-----|
-----------0--------|-----------3--------|-----------3--------|
--------------------|--------3-----3--2--|--------3--------3--|
-----0--4-----------|-----3--------------|-----3--------------|
--2--------2--------|--1-----------L--1--|--1--------1--------|
--------------------|--------------------|--------------------|


  E  E  E  E  E  E     E  E  E  E  E  E     Q.     E  E  E     Q.     E  E  E   
-----------0-----0--|-----------4--0-----|------------------|------------------|
--------0-----0-----|--------0--------0--|------------------|------------------|
-----2--------------|-----1--------------|--2------1--------|---------2--------|
--2-----------L--2--|--2-----2-----------|------------4--2--|--0---------------|
--------------------|--------------2-----|------------------|--2---------L--2--|
--------------------|--------------------|--2---------L--2--|------------------|


  Q.     E  E  E     Q    E  E  Q       Q    E  E  E  E     Q    E  E  Q     
------------------|------------------|-------------------|------------------|
------------------|------------------|-------------------|------------------|
--1---------------|------------------|-------------------|------------------|
---------4--2--0--|----------6-------|--4-------2--0-----|-------0-----4----|
---------2--------|--4----------0----|--2----------2--4--|--2-------2-------|
--0---------------|--5----4----------|-------2-----------|------------------|


  H        E  E     E  E  E  E  E  E     Q.     E  E  E     Q.     E  E  E   
-----------------|--------------------|------------------|------------------|
-----------------|--0-----------------|------------------|------------------|
--1--------1--2--|--------------------|--2------1--------|---------2--------|
--2--------L--2--|--2-----2--------2--|------------4--2--|--0---------------|
-----------------|-----2-----2--------|------------------|--2---------L--2--|
-----------------|--------------0-----|--2---------L--2--|------------------|


  Q.     E  E  E     Q    E  E  Q       Q    E  E  E  E     Q    E  E  Q     
------------------|------------------|-------------------|------------------|
------------------|------------------|-------------------|------------------|
--1---------------|------------------|-------------------|------------------|
---------4--2--0--|----------6-------|--4-------2--0-----|-------0-----4----|
---------2--------|--4----------0----|--2----------2--4--|--2-------2-------|
--0---------------|--5----4----------|-------2-----------|------------------|


  H        E  E     E  E  E  E  E  E     
-----------------|---------------------||
-----------------|--0------------------||
--1--------1--2--|--------------------*||
--2--------L--2--|--2-----2--------2--*||
-----------------|-----2-----2---------||
-----------------|--------------0------||




Duration Legend
---------------
W - whole
H - half
Q - quarter
E - 8th
S - 16th
T - 32nd
X - 64th
. - note dotted
|-n-|  - n-tuplets


Tablature Legend
----------------
L - tied note
x - dead note
g - grace note
(n) - ghost note
> - accentuded note
NH - natural harmonic
AH - artificial harmonic
TH - tapped harmonic
SH - semi harmonic
PH - pitch harmonic
h - hammer on
p - pull off
b - bend
br - bendRelease
pb - preBend
pbr - preBendRelease
brb - bendReleaseBend
\n/ - tremolo bar dip
\n - tremolo bar dive
-/n - tremolo bar Release up
/n\ - tremolo bar inverted dip
/n - tremolo bar return
-\n - tremolo bar Release down
S - shift slide
s - legato slide
/ -  slide into from below or out of upwards
\ -  slide into from above or out of downwards
~ - vibrato
W - wide vibrato
tr - trill
TP - tremolo picking
T - tapping
S - slap
P - pop
< - fade in
^ - brush up
v - brush down
Login or Register to remove this ad.

1 comment on Vale

good job !

5

I didn't know this tune, I adore :D
I m gonna try to build a solo tab using your work coz your transcription sounds perfectly right & I ll cant resist