Vale (Golden Sun) Guitar Tab

Submitted: Oct 27, 2010 by bubblingbeebles

5
Average: 5 (2 votes)
Download | Listen
Game: Golden Sun
Composer(s): Motoi Sakuraba
Style: Arrangement, Fingerstyle

This song is also called An Adepts's Home

AutoScroll: Slow | Medium | Fast
Golden Sun- Vale Theme
Composed by Motoi Sakuraba
Arranged by bubblingbeebles
7/20/2010
(Capo on 3 for correct key) 

E||--5--------------|--4-----0-2------|--0--------------|--0-------------|----------0--5--|
B||------0----------|------3-----3----|------0----------|--------3-------|--2-----3-------|
G||----------2------|-----2-----------|-----------2-----|------2---0-----|------2---------|
D||----2---2---2----|--0-------0------|----2---2------2-|---0--------0---|----2-----------|
A||--0-------0------|--------0--------|--0--------0-----|----------------|--0-------0-----|
E||--------0--------|-----------------|--------0--------|--3-----3-3-----|--------0-------|
	
|---3--5--7--10---|--9---7----5-----|----------------|--5---------------|--4-----0-2------|
|-----------------|-----------------|--3---0----2----|--2---0-----------|--3---3-----3----|
|------------0----|---------------2-|---2--0----2--2-|-----2---2--------|-----2-----------|
|---------0-------|------0------0---|-----0--0----2--|----2------2------|--0--------------|
|-----------------|-----------0-----|-------2---0----|--0---------------|--------0--------|
|---3-------------|-----------------|------3---------|------0-----------|-----------------|

|--0--------0--5--|--0--------------|---------0---5----|---3-------7-5-3-|--1-------------|
|-02---3----------|--0-----3--------|--2-----3---------|-----------------|--------3-------|
|-----2-----------|------2---0------|------2-----------|---------0---0---|------2---2-----|
|----2------------|---0--------0----|----2-------------|------0----------|----0-------0---|
|--0--------------|-----------------|--0---------------|-----------------|----------------|
|------0----------|--3------3-------|--------0---------|---3-------0-----|---1------------|

|----------0-----|--0-------------|-------------------|-----------------|-----------------|
|--3-------2-----|--0-------0------|-----0------------|-------3- 203----|--3-2-0----------|
|--2--2-------2--|--------0---0----|---0---0--2-------|---------------4-|--------2--------|
|---0-------2----|-----2--------2--|34----------------|-----4-------4---|----------0--3---|
|--0-------0-----|--3--------------|--3-3---3---------|--0--------------|---------0-----0-|
|----------------|-----------------|------------------|-----------------|--------1-----1--|

|----------------|-----------------|-----------------|------------------|-----------------|
|-----3--2----2--|-----------------|--0-------0------|-0------------3---|---0-3-1---------|
|---2--------2-2-|-1---------------|--0-----0---0----|----2--0-----4-4--|--4------3-2-3---|
|-3---------0----|-----------------|-----2--------2--|--0--0--0-4-----4-|-4---0-----------|
|---------0------|-0-----0---------|--3--------------|-3---------24-----|3------------1---|
|----------------|----0------------|-----------------|------------------|-----------------|


|----0---0--------|--5----4--2---0--|-------------5----|---4--2--0-------|--4---2-0-------|
|--3----3-3-2-----|-----------------|--3---------------|-----------3--2--|---------3-2-0--|
|------2----------|-----------------|------------------|-----------------|----------------|
|-----2-----2-----|-----------------|------------------|---2-----2-------|----------------|
|--- 0------------|--0-----------4--|--2---------------|-2----2----2--0--|------2------2--|
|------------0----|-----------------|------------------|-----------------|-4---------2----|

|-------2-----4--|-4-5-7-4---|
|--3-------------|-----------|
|----------------|-----------|
|----------------|-----------|
|-------2--------|-----------|
|-------------0--|-------0---|
Login or Register to remove this ad.