Main Theme (Golden Sun) Guitar Tab

Submitted: May 23, 2014 by Ideka

0
Download | Listen
Game: Golden Sun
Composer(s): Motoi Sakuraba
Style: Transcription

AutoScroll: Slow | Medium | Fast
Main Theme
Golden Sun
Tabbed by Gerardo Marset.

      |--3--|                                 |------3------|               
      Q     E      Q     Q     Q     Q        H         E   E   Q     Q     
E||------------|--------------------------|--------------------------------|
B||------------|--------------------------|--------------------------------|
G||------------|--------------------------|--------------------------------|
D||------------|--------------11----14----|--12--------11------11----------|
A||------------|--12----14----------------|----------------14--------12----|
E||--12----12--|--------------------------|--------------------------------|


   |--3--|             |---3---|                  
   Q     E   H         E   E   E      Q     Q     
----------------------------------|--------------|
----------------------------------|--------------|
----------------------------------|--------------|
------------14--------12--11------|--11----------|
--14----14--------------------14--|--------12----|
----------------------------------|--------------|


   |--3--|             |---3---|                  
   Q     E   H         E   E   E      Q     Q     
----------------------------------|--------------|
----------------------------------|--------------|
----------------------------------|--------------|
------------14--------12--11------|--11----14----|
--14----14--------------------14--|--------------|
----------------------------------|--------------|


         |---3---|                        |---3---|               
   Q     E   E   E   Q     Q        Q     E   E   E   Q     Q     
--------------------------------|--------------------------------|
--------------------------------|--------------------------------|
--14----14--13--11--13----------|--11----11----------------------|
--------------------------14----|------------14--12--14----11----|
--------------------------------|--------------------------------|
--------------------------------|--------------------------------|


         |---3---|                                         |--3--|   
   Q     E   E   E   Q     Q        Q.      S  S  Q        Q     E   
--------------------------------|----------------------|------------|
--------------------------------|----------------------|------------|
--------------------------14----|--11------13-14-13----|------------|
--12----12--11------11----------|----------------------|------------|
----------------14--------------|----------------------|------------|
--------------------------------|----------------------|--12----12--|


                              |------3------|               
   Q     Q     Q     Q        H         E   E   Q     Q     
--------------------------|--------------------------------|
--------------------------|--------------------------------|
--------------------------|--------------------------------|
--------------11----14----|--12--------11------11----------|
--12----14----------------|----------------14--------12----|
--------------------------|--------------------------------|


   |--3--|             |---3---|                  
   Q     E   H         E   E   E      Q     Q     
----------------------------------|--------------|
----------------------------------|--------------|
----------------------------------|--------------|
------------14--------12--11------|--11----------|
--14----14--------------------14--|--------12----|
----------------------------------|--------------|


   |--3--|             |---3---|                  
   Q     E   H         E   E   E      Q     Q     
----------------------------------|--------------|
----------------------------------|--------------|
----------------------------------|--------------|
------------14--------12--11------|--11----14----|
--14----14--------------------14--|--------------|
----------------------------------|--------------|


         |---3---|                        |---3---|               
   Q     E   E   E   Q     Q        Q     E   E   E   Q     Q     
--------------------------------|--------------------------------|
--------------------------------|--------------------------------|
--14----14--13--11--13----------|--11----11----------------------|
--------------------------14----|------------14--12--14----11----|
--------------------------------|--------------------------------|
--------------------------------|--------------------------------|


         |---3---|                                            
   Q     E   E   E   Q     Q        Q.      S  S  Q     Q     
--------------------------------|----------------------------|
--------------------------------|----------------------------|
--------------------------14----|--11------13-14-14----13----|
--12----12--11------11----------|----------------------------|
----------------14--------------|----------------------------|
--------------------------------|----------------------------|


         |---3---|                        |---3---|               
   Q     E   E   E   Q     Q        Q     E   E   E   Q     Q     
--------------------------------|--------------------------------|
--------------------------------|--------------------------------|
--14----14--13--11--13----------|--11----11----------------------|
--------------------------14----|------------14--12--14----11----|
--------------------------------|--------------------------------|
--------------------------------|--------------------------------|


         |---3---|                                          
   Q     E   E   E   Q     Q        Q.      S  S  H         
--------------------------------|--------------------------|
--------------------------------|--------------------------|
--------------------------------|--------------------------|
--12----12--11------11----------|--------------------------|
----------------14--------12----|----------11-12-11--------|
--------------------------------|--14----------------------|


   |--3--|             |---3---|                        |---3---|   
   Q     E   H         E   E   E      Q     Q     Q     E   E   E   
----------------------------------|--------------------------------|
----------------------------------|--------------------------------|
----------------------------------|--------------12----11----------|
------------14--------12--11--12--|--14--------------------14--12--|
--12----12------------------------|--------12----------------------|
----------------------------------|--------------------------------|


                   |---3---|      |-----3-----|     
   H         Q     E   E   E      Q     Q     Q     
------------------------------|--------------------|
------------------------------|--------------------|
------------12----11----------|--------11----12----|
--14------------------14--12--|--14----------------|
------------------------------|--------------------|
------------------------------|--------------------|


            |-----3-----|                  |---3---|   |---3---|   
   H        Q     Q     Q        H         E   E   E   E   E   E   
-----------------------------|------------------------------------|
-----------------12----13----|--12------------15--13--12----------|
--14--------L----------------|------------12--------------14--12--|
-----------------------------|------------------------------------|
-----------------------------|------------------------------------|
-----------------------------|------------------------------------|


            |-----3-----|                                                   
   H        Q     Q     Q        H         H            H         H         
-----------------------------|----------------------|----------------------|
-----------------12----13----|--12--------15--------|--14------------------|
--14--------L----------------|----------------------|------------14--------|
-----------------------------|----------------------|----------------------|
-----------------------------|----------------------|----------------------|
-----------------------------|----------------------|----------------------|


   H         Q       
-------------------||
-------------------||
------------------*||
--14--------------*||
------------12-----||
-------------------||




Duration Legend
---------------
W - whole
H - half
Q - quarter
E - 8th
S - 16th
T - 32nd
X - 64th
. - note dotted
|-n-|  - n-tuplets


Tablature Legend
----------------
L - tied note
x - dead note
g - grace note
(n) - ghost note
> - accentuded note
NH - natural harmonic
AH - artificial harmonic
TH - tapped harmonic
SH - semi harmonic
PH - pitch harmonic
h - hammer on
p - pull off
b - bend
br - bendRelease
pb - preBend
pbr - preBendRelease
brb - bendReleaseBend
\n/ - tremolo bar dip
\n - tremolo bar dive
-/n - tremolo bar Release up
/n\ - tremolo bar inverted dip
/n - tremolo bar return
-\n - tremolo bar Release down
S - shift slide
s - legato slide
/ -  slide into from below or out of upwards
\ -  slide into from above or out of downwards
~ - vibrato
W - wide vibrato
tr - trill
TP - tremolo picking
T - tapping
S - slap
P - pop
< - fade in
^ - brush up
v - brush down
Login or Register to remove this ad.