The Lost Age Madra (Golden Sun) Guitar Tab

Submitted: Sep 12, 2009 by GuitarGuy (Last updated: Nov 05, 2010)

5
Average: 5 (6 votes)
Download | Listen
Game: Golden Sun
Composer(s): Motoi Sakuraba
Style: Arrangement, Fingerstyle

Click here for a video example.

AutoScroll: Slow | Medium | Fast
Gtr I (E A D G B E) - Golden Sun The Lost Age - Madra
Tabbed by: GuitarGuy
Arranged by: GuitarGuy

    Q=55
   4/4
    Gtr I
    E E E E E E E E   E E E E E E E E     E E E E E E E E   E E E E
||------------------|------------------||-0---------0-1-3-|-----------|
||o-------1-------0-|-------1-------0-o||---------3-------|-1-----1---|
||------0-------0---|-----2-------0----||-----0-----------|-----2-----|
||----2-------0-----|---2-------0------||---2---2---------|---2-------|
||o-3-------2-------|-0---------------o||-3-------2-------|-0---------|
||------------------|---------3--------||-----------------|-----------|
                                          H       H         H


  E E E E   E E E S S E E E E   E E E E E E E E   E E E E E E E S S
|-0-------|---------------3---|-0-----0---------|-------0-----------|--|
|-----0---|-------0-1-3-----3-|---------3---0---|---0-1---3-----1-0-|--|
|---------|-2-----------------|-----0-----------|-2-----------0-----|--|
|---0---0-|-----3-------0-----|---2-------0---0-|-----------0-------|--|
|---------|---3---------------|-3-------2-------|-0-----------------|--|
|-3-------|-1---------3-------|-----------------|---------3---------|--|
  H         H         H         H       H         H       H


  E E E E E E E E E E E S S   E E E E E E E E   E E E E
|---------------------------|-----------------|----------||----|
|-----------------------0-1-|-1---0---1-----1-|-1-----1-o||----|
|-2-----0-2-------2---------|-------------0---|-----0----||----|
|-----3-------3-------3-----|---0---0---3-----|---2------||----|
|---3-------3---3---3-------|---------3-------|-3-------o||----|
|-1-------1-------1---------|-3---------------|----------||----|
  H       H       H           H       H         H




--------------------------------------------------------------------------------


Duration Legend
---------------
W - whole; H - half; Q - quarter; E - 8th; S - 16th; T - 32nd; X - 64th; a - acciaccatura
+ - note tied to previous; . - note dotted; .. - note double dotted
Uncapitalized letters represent notes that are staccato (1/2 duration)
Irregular groupings are notated above the duration line
Duration letters will always appear directly above the note/fret number it represents the
duration for.  Duration letters with no fret number below them represent rests.  Multi-
bar rests are notated in the form Wxn, where n is the number of bars to rest for.  Low
melody durations appear below the staff

Tablature Legend
----------------
 h   - hammer-on
 p   - pull-off
 b   - bend
 pb  - pre-bend
 r   - bend release (if no number after the r, then release immediately)
 /\  - slide into or out of (from/to "nowhere")
 s   - legato slide
 S   - shift slide
 - natural harmonic
[n]  - artificial harmonic
n(n) - tapped harmonic
 ~   - vibrato
 tr  - trill
 T   - tap
 TP  - trem. picking
 PM  - palm muting
\n/  - tremolo bar dip; n = amount to dip
 \n  - tremolo bar down
 n/  - tremolo bar up
/n\  - tremolo bar inverted dip
 =   - hold bend; also acts as connecting device for hammers/pulls
 <> - volume swell (louder/softer)
 x   - on rhythm slash represents muted slash
 o   - on rhythm slash represents single note slash

Misc Legend
-----------
 |  - bar
||  - double bar
||o - repeat start
o|| - repeat end
*|  - double bar (ending)
 :  - bar (freetime)
 $  - Segno
 &  - Coda
Tempo markers -  = BPM(8/16=s8/s16), where s8 = swing 8ths, s16 = swing 16ths

Login or Register to remove this ad.

4 comments on The Lost Age Madra

i love you man ;_ ;

i love you man ;_ ;

i love him too

i love him too

i want his babies. mash's too

i want his babies.

mash's too

the fuck!!! I m just going to

the fuck!!! I m just going to say very nice arrangement bro I just learned it.