Imil (Golden Sun) Guitar Tab

Submitted: Nov 11, 2010 by bubblingbeebles

5
Average: 5 (7 votes)
Download | Listen
Game: Golden Sun
Composer(s): Motoi Sakuraba
Style: Arrangement, Fingerstyle

Click here for a video example.

AutoScroll: Slow | Medium | Fast
Golden Sun
Imil
Composed by Motoi Sakuraba
Arranged by bubblingbeebles

Drop the two lowest strings to G and C for that low bass line.

E|-0------3-2----0-----|---------------------|----------0-----|-2-----------|-------------------|
B|-1----------3--------|-----------3---1-0---|0--1---0--------|---3---------|------------3--0---|
G|----0------2------0--|----0--2-----02---2--|-------------0--|------2------|-0----0-2----------|
D|---0-40---0---0--0-40|--0--4------0------0-|----------------|--0-----0----|---0-4----0------4-|
G|--0------0--0---0----|---0-------0---0-----|--2-------4-----|----2--------|--0-0----2-2----4--|
C|-0------0------0-----|-0---0------------2--|---2---4---4----|-2----2------|-0---0--2---2--4---|

|-------------------|--0-2-0------0-----|-3-2-3-5-3-2-----|-0------------0-----|--3-2-3-5-3-2--|
|------------1---01-|3------------------|-----------------|--3----0---13-------|---------------|
|-------------------|-------------------|-----------------|---------0--0----0--|---------------|
|--------------0----|--0----------------|-------0---------|-------0--------0-40|--------0------|
|-------2-----0-0---|-2-2-----------2---|---0-5-----0-----|--2---0--------0----|--2---------2--|
|6-7--2--2---0---0--|2---2-4--6-7-2---2-|-0-------0-------|-2--2---------0-----|---------------|

|-0------3--5--7---|-5----------------|-3-2-3-5--2-3-10-|-12-10-8--7-5----|-323-5-3-2---10--|
|------3-0---------|------------------|----------3------|-13--------------|-----------------|
|----------0-------|------------------|-----------------|-----------------|-----------------|
|---0-----0------0-|--0---------------|--------------0--|----------0------|-------------0---|
|--2-2-2-0-----0---|----5-4-2---------|------------2----|------0-----2----|-----4-----2-----|
|-2---------2------|-2--------2-------|--4----4--2------|--0----0------2--|-4-----4-2-------|

|-12-14-15-14-10-5-|--0-------3-2-----|-0---------------|-----------------|-----------------|
|------------------|--1-------3---3---|-1---------------|-3----10---0-----|-----------------|
|------------------|------------------|-----------------|---02---2-----2--|-0------0--------|
|-----------0------|------------------|-----------------|--0-------0-0----|----0------------|
|-----0------------|--------------0---|----------0------|-0----0----------|--------0--------|
|--0----0--------2-|--0-------0-------|-0------0---0----|--------2------2-|-0---------------|
Login or Register to remove this ad.

4 comments on Imil

I registered just so I could

5

I registered just so I could rate this tab, haha.

Seriously though, this tab is wonderful--a fantastic transcription of a fantastic song from a fantastic game. The one thing that would make this perfect would be if the tab included note durations... but I won't push my luck. ;)

Thanks for the tab. Keep up the good work!

the bass sounds just

5

the bass sounds just wonderful...
indeed a wonderful song, and you managed to make an amazing tab of it!

Golden Sun really has

5

Golden Sun really has wonderful music, you pretty much nailed the theme with this tab. Wish you would clean up the notations though.

Okay so I did it myself,

Okay so I did it myself, using the OST and you video example for reference, this should be much easier to read.

http://www.gametabs.net/files/user/Ennea/winterly%20imil.txt

And the GP5

http://www.gametabs.net/files/user/Ennea/winterly%20imil.gp5

Again: great tab. Although it makes me really sleepy lol.