Ads

Mars Lighthouse (Golden Sun: The Lost Age) Guitar Tab

Submitted: Aug 09, 2014 by corntastic (Last updated: Aug 09, 2014)

3
Average: 3 (2 votes)
Download | Listen
Game: Golden Sun: The Lost Age
Composer(s): Motoi Sakuraba
Style: Transcription

AutoScroll: Slow | Medium | Fast
Mars Lighthouse
Golden Sun: The Lost Age
Motoi Sakuraba
corntastic
6 8 2014


Note the low C tuned E string.



E|-------------------------------------------------|-------------------------------------------------|
B|-------------------------------------------------|-------------------------------------------------|
G|-------------------------------------------------|-------------------------------------------------|
D|-----------------------------0-------------------|-------------------------------------------------|
A|-----------------0---2---3-------2---3---0---2---|-----0-------0-----------------------------------|
C|-7---4---5---7-----------------------------------|-7-------7-------5---7---4---5---2---4---0---2---|


E|-------------------------------------------------|-------------------------------------------------|
B|-------------------------------------------------|-------------------------------------------------|
G|-------------------------------------------------|---------0---------------------------------------|
D|-----------------------------0-------------------|-2---3-------3---2---0-------0-------------------|
A|-----------------0---2---3-------2---3---0---2---|-------------------------3-------3---2---0-------|
C|-7---4---5---7-----------------------------------|---------------------------------------------7---|


E|---------------------7---8---10--7---8-------7---|-------------------------------------------------|
B|-8-----------8---10----------------------10------|-8---10--8---10------8---------------------------|
G|-----9---10--------------------------------------|-----------------10------9---10--7---9-------7---|
D|-------------------------------------------------|-----------------------------------------10------|
A|-------------------------------------------------|-------------------------------------------------|
C|-------------------------------------------------|-------------------------------------------------|


E|---------------------7---8---10--7---8-----------|-12--13--15--13--12------------------------------|
B|-8-----------8---10----------------------10--12--|---------------------15--13--15--13--12----------|
G|-----9---10--------------------------------------|-----------------------------------------14--12--|
D|-------------------------------------------------|-------------------------------------------------|
A|-------------------------------------------------|-------------------------------------------------|
C|-------------------------------------------------|-------------------------------------------------|


E|-17--------14----------------------|-------------------------------------------------|
B|---------------17--15--14----------|-------------------------14------14--15------15--|
G|---------------------------16--13--|-14--13--14--16--14--16--------------------------|
D|-----------------------------------|-------------------------------------------------|
A|-----------------------------------|-------------------------------------------------|
C|-----------------------------------|-------------------------------------------------|


E|-17----------19----------17-------16---------------|-21--19--17--------------------------------------|
B|-----17--14------19------------------------19--17--|-------------21--19--17--------------------------|
G|---------------------19----------------------------|-------------------------19--18------------------|
D|---------------------------------------------------|---------------------------------21--19--18------|
A|---------------------------------------------------|---------------------------------------------21--|
C|---------------------------------------------------|-------------------------------------------------|


E|-------------------17------|--------------------------|-------------------------------|
B|-----------17--------------|-20--------20---18---17---|------17-------------17---18---|
G|---------------------------|--------------------------|-19--------17---19-------------|
D|-19------------------------|--------------------------|-------------------------------|
A|---------------------------|--------------------------|-------------------------------|
C|---------------------------|--------------------------|-------------------------------|


E|-17--19--20--22--20--19--17----------------------|---------------------7---8---10--7---8-------7---|
B|-----------------------------20--18--17----------|-8-----------8---10----------------------10------|
G|-----------------------------------------19--17--|-----9---10--------------------------------------|
D|-------------------------------------------------|-------------------------------------------------|
A|-------------------------------------------------|-------------------------------------------------|
C|-------------------------------------------------|-------------------------------------------------|


E|-------------------------------------------------|---------------------7---8---10--7---8-----------|
B|-8---10--8---10------8---------------------------|-8-----------8---10----------------------10--12--|
G|-----------------10------9---10--7---9-------7---|-----9---10--------------------------------------|
D|-----------------------------------------10------|-------------------------------------------------|
A|-------------------------------------------------|-------------------------------------------------|
C|-------------------------------------------------|-------------------------------------------------|


E|-12--13--15--13--12------------------------------|---------------------7---8---10--7---8-------7---|
B|---------------------15--13--15--13--12--10--8---|-8-----------8---10----------------------10------|
G|-------------------------------------------------|-----9---10--------------------------------------|
D|-------------------------------------------------|-------------------------------------------------|
A|-------------------------------------------------|-------------------------------------------------|
C|-------------------------------------------------|-------------------------------------------------|


E|-------------------------------------------------|---------------------7---8---10--7---8-----------|
B|-8---10--8---10------8---------------------------|-8-----------8---10----------------------10--12--|
G|-----------------10------9---10--7---9-------7---|-----9---10--------------------------------------|
D|-----------------------------------------10------|-------------------------------------------------|
A|-------------------------------------------------|-------------------------------------------------|
C|-------------------------------------------------|-------------------------------------------------|


E|-12--13--15--13--12------------------------------|---------4---5---4---7---5---4-------8---7---5---|
B|---------------------15--13--15--13--12--10--8---|-5---6---------------------------6---------------|
G|-------------------------------------------------|-------------------------------------------------|
D|-------------------------------------------------|-------------------------------------------------|
A|-------------------------------------------------|-------------------------------------------------|
C|-------------------------------------------------|-------------------------------------------------|


E|-7---8---7---8---5---7-------4-------------------|-10--8--7--------------------------------------------|
B|-------------------------6-------5---6-------5---|-----------10-9--6-----------------------------------|
G|-----------------------------------------7-------|---------------------9---7---9---5---7---4---5-------|
D|-------------------------------------------------|-------------------------------------------------7---|
A|-------------------------------------------------|-----------------------------------------------------|
C|-------------------------------------------------|-----------------------------------------------------|


E|-------------------------------------7---8---10--|-12--------13---12---10---|-12--------17---16---13---|
B|---------------------5---6---9---10--------------|--------------------------|--------------------------|
G|---------4---5---7-------------------------------|--------------------------|--------------------------|
D|-6---7-------------------------------------------|--------------------------|--------------------------|
A|-------------------------------------------------|--------------------------|--------------------------|
C|-------------------------------------------------|--------------------------|--------------------------|


E|-12--10--8---------------------------------------|-12-16-13-12-10----------------------------------------------------------|
B|-------------12--10--9---------------------------|----------------13-12-10-9-----------------------------------------------|
G|-------------------------10--9---7---------------|----------------------------10-9--7--5-----------------------------------|
D|-------------------------------------10--9---7---|----------------------------------------9--7--6--------------------------|
A|-------------------------------------------------|-------------------------------------------------8--7--5-----------------|
C|-------------------------------------------------|----------------------------------------------------------12-11-9--8--5--|


E|---------9-----------9-----------9-----------9---|---------10----------10----------10----------10--|
B|-----10----------10----------10----------10------|-----11----------11----------11----------11------|
G|-11----------11----------11----------11----------|-12----------12----------12----------12----------|
D|-------------------------------------------------|-------------------------------------------------|
A|-------------------------------------------------|-------------------------------------------------|
C|-------------------------------------------------|-------------------------------------------------|


E|---------11----------11----------11----------11--|---------12----------12----------12----------12--|
B|-----12----------12----------12----------12------|-----13----------13----------13----------13------|
G|-13----------13----------13----------13----------|-14----------14----------14----------14----------|
D|-------------------------------------------------|-------------------------------------------------|
A|-------------------------------------------------|-------------------------------------------------|
C|-------------------------------------------------|-------------------------------------------------|


E|---------9-----------9-----------9-----------9---|---------10----------10----------10----------10--|
B|-----10----------10----------10----------10------|-----11----------11----------11----------11------|
G|-11----------11----------11----------11----------|-12----------12----------12----------12----------|
D|-------------------------------------------------|-------------------------------------------------|
A|-------------------------------------------------|-------------------------------------------------|
C|-------------------------------------------------|-------------------------------------------------|


E|---------11----------11----------11----------11--|---------12----------12----------12----------12--|
B|-----12----------12----------12----------12------|-----13----------13----------13----------13------|
G|-13----------13----------13----------13----------|-14----------14----------14----------14----------|
D|-------------------------------------------------|-------------------------------------------------|
A|-------------------------------------------------|-------------------------------------------------|
C|-------------------------------------------------|-------------------------------------------------|


E|-12--13--14--13--12--11--10--9---12--8-----------|-----10----------9---8---7---6-------------------|
B|-----------------------------------------12--11--|-10------9---8-------------------10--9---8---7---|
G|-------------------------------------------------|-------------------------------------------------|
D|-------------------------------------------------|-------------------------------------------------|
A|-------------------------------------------------|-------------------------------------------------|
C|-------------------------------------------------|-------------------------------------------------|


E|-----6-----------------------6---7---8---9---10--|-12--11------------------9-----------------------|
B|-7-------6---7---8---9---10----------------------|---------11--10--9---8-------7---6---5---4---3---|
G|-------------------------------------------------|-------------------------------------------------|
D|-------------------------------------------------|-------------------------------------------------|
A|-------------------------------------------------|-------------------------------------------------|
C|-------------------------------------------------|-------------------------------------------------|


E|-------------0-----------------------2-----------|-----------------------------0---1---4-------5---|
B|-2---3---4-------4---3---2---1---0---------------|---------0---1---2---3---4---------------4-------|
G|-----------------------------------------3---2---|-2---3-------------------------------------------|
D|-------------------------------------------------|-------------------------------------------------|
A|-------------------------------------------------|-------------------------------------------------|
C|-------------------------------------------------|-------------------------------------------------|


E|-6---7-------5-----------10--9---8-------12------|-11------10------9---8---7---6---5---4---3---2---|
B|---------7-------9---8---------------12------11--|-----10------9-----------------------------------|
G|-------------------------------------------------|-------------------------------------------------|
D|-------------------------------------------------|-------------------------------------------------|
A|-------------------------------------------------|-------------------------------------------------|
C|-------------------------------------------------|-------------------------------------------------|


E|-------------------------------------------------|-------------------------------------------------|
B|-------------------------------------------------|-------------------------------------------------|
G|-------------------------------------------------|-------------------------------------------------|
D|-----------------------------0-------------------|-------------------------------------------------|
A|-----------------0---2---3-------2---3---0---2---|-----0-------0-----------------------------------|
C|-7---4---5---7-----------------------------------|-7-------7-------5---7---4---5---2---4---0---2---|


E|-------------------------------------------------|-------------------------------------------------|
B|-------------------------------------------------|-------------------------------------------------|
G|-------------------------------------------------|---------0---------------------------------------|
D|-----------------------------0-------------------|-2---3-------3---2---0-------0-------------------|
A|-----------------0---2---3-------2---3---0---2---|-------------------------3-------3---2---0-------|
C|-7---4---5---7-----------------------------------|---------------------------------------------7---|
Login or Register to remove this ad.