A Full Moon in Garoh (Golden Sun: The Lost Age) Bass Tab

Submitted: Apr 11, 2011 by Nimise

0
Download | Listen
Game: Golden Sun: The Lost Age
Composer(s): Motoi Sakuraba
Style: Transcription

AutoScroll: Slow | Medium | Fast
Golden Sun: The Lost Age
A Full Moon in Garoh
Composed by Motoi Sakuraba
Tabbed by Nimise

  Q   Q   Q    H     E  E  H     Q   H.       Q   Q   Q    Q.   Q.    H.       Q.   Q.
G|------------|-----------|---------|--------|------------|-----10---|--------|---------|
D|--------13--|12----10-8-|---------|--------|--------13--|12--------|10------|10---9---|X2
A|10--11------|-----------|10----8--|10------|10--11------|----------|--------|---------|
E|------------|-----------|---------|--------|------------|----------|--------|---------|

  Q.   E  E  E   Q   Q   Q    Q.   E  E  E   Q.   Q.    Q.   E  E  E   Q   Q   Q    Q.   E  E  E   H.       Q.  Q.
G|--------------|------------|--------------|----------|--------------|------------|--------------|--------|----------|
D|-----------12-|13--15------|-----------12-|13---12---|-----------12-|13--15------|-----12-13-15-|12------|----------|
A|15---13-15----|--------13--|15---13-15----|----------|15---13-15----|--------13--|15------------|--------|14---10---|
E|--------------|------------|--------------|----------|--------------|------------|--------------|--------|----------|
Login or Register to remove this ad.