Those Carrying Solitude (God Eater Burst) Bass/Guitar Tab

Submitted: Jan 27, 2016 by gudz (Last updated: Feb 27, 2016)

5
Average: 5 (1 vote)
Download | Listen
Game: God Eater Burst
Composer(s): Go Shiina
Style: 2 or more instruments, Arrangement, Fingerstyle

AutoScroll: Slow | Medium | Fast

Rythm of the first, classic-only part is not the same as the original song, which was almost impossible to replicate. For that part I HIGHLY suggest listening to the original song

https://www.youtube.com/watch?v=ivMfoQbUs9M

Anyway, the rythm pattern I used is based on another GEB song (the melody is almost same as vocals) (link below)
https://www.youtube.com/watch?v=PLUeowS8VNk

Bass part should is a cello in original song

Tempo = 71
Nylon Guitar

                            ^                      ^                    
E |----------------------|--0-------------------|--0-------------------|
B |--------------1--3----|--1-----------1--3----|--0--------0--1--3----|
G |----------------------|--2--------2----------|--0-------------------|
D |----------------------|--2-------------------|----------------------|
A |----------------------|--0-------------------|----------------------|
E |----------------------|----------------------|--3-------------------|

  ^                                                         
--0----------|-----------0----------|----------------------|
--1--3-------|--1--3--3-------------|-----------0-----1----|
--0----------|--2-----0-----0L------|--0-----2--------2----|
-------------|--------5-------------|--------------0-------|
-------------|----------------------|----------------------|
--1----------|----------------------|----------------------|

                          ^              
--------------------------0-------------|
--1L----------1--0--1--3--0-----3-------|
--2L----------2-----------0-------------|
----------------------------------------|
----------------------------------------|
--------------------------0-------------|

              ^           ^                ^           ^        
----------------------------------------|----------------------|
--------0-----------------------0--1----|--0--------0--0L------|
--3-----------5-----------2-------------|--2-----2-----1L------|
--------------7-----7-----4-------------|--2--2--------2L------|
--------------7-----------6-------------|--2-----------2L------|
--------------5-------------------------|--0-----------0L------|

                         ^                      ^                    
----------------------|--0-------------------|----------------------|
--0L----0-----1--3----|--1-----------1--3----|--5--------0--1--3----|
--1L----1-------------|--2--------2----------|--4-------------------|
--2L----2--2----------|--2-------------------|--6-------------------|
--2L----2-------------|--0-------------------|--7-------------------|
--0L----0-------------|----------------------|--4-------------------|

  ^     ^             ^                                     
--0-----1----|--0--------0----------|----------------------|
--1--3--3----|--------3-------------|-----------0----------|
--0-----3----|--------2-----2L------|--2-----2-------------|
-------------|--------0-------------|----------------------|
-------------|----------------------|----------------------|
--1-----3----|--------1-------------|----------------------|

                                         
----------------------------------------|
--------------1-----1-----0-------------|
--------------------2-----------2-------|
--0--2--3-----------1-----------2-------|
--------------------------------0-------|
----------------------------------------|

                                ^        
----------------------------------------|
--0--1--------------------5-----5-------|
--------------------------------4-------|
--------------2-----3-----------2-------|
--------------------------------2-------|
--------0-------------------------------|

  ^     ^     ^                          
----------------------------------------|
--3-----1-----0-----------0--1--5-------|
--4-----1-----1-----------1--1--4-------|
--2-----2-----2-----------2--2--2-------|
--2-----2-----2-----------2--2--2-------|
----------------------------------------|

  ^                                      
----------------------------------------|
--10-------10-10-------10---------------|
--9-----9-----------9-----12----10------|
--10-10----------10-------10----10------|
--8-----------------------8-----8-------|
----------------------------------------|

              ^           ^              
----------------------------------------|
--------------5--------5--3-----5-------|
--10----12----5-----5-----4-------------|
--9-----9-----5--5----------------------|
--7-----7-------------------------------|
--------------3-----------4-------------|

  ^           ^                          
----------------------------------------|
--6-----5--------------------------0----|
--5-----------5-----------------2-------|
--7-----------7-------------------------|
--------------7-------------------------|
--5-----------5-------------------------|

                    ^                    
--------------------0-------------------|
--------------1-----1-----------3-------|
--------------------2-------------------|
--0--2--3-------------------------------|
----------------------------------------|
--------------------0-------------------|

  ^           ^                          
----------------------------------------|
--3-----------1L----------1--0--1--3----|
--2-----------2L----------2-------------|
----------------------------------------|
----------------------------------------|
--0-----------0L----------0-------------|

  ^                                   ^                    
--0-----------------------------------0--------------0----|
--1-----------------1--------3--------1-------------------|
--2--------2--------------------------0-----------3-------|
--2--------------------------------------------3----------|
--0-------------------------------------------------------|
--------------------------------------3-------------------|

                                         
----------------------------------------|
-----3----------------------------------|
--------------3--5----------------------|
-----------3----------------------------|
----------------------------------------|
--2--------------------1s----------8g---|

  ^                                      
----------------------------------------|
--10-------10-10-------10---------------|
--9-----9-----------9-----12----10------|
--10-10----------10-------10----10------|
--8-----------------------8-----8-------|
----------------------------------------|

              ^           ^              
----------------------------------------|
--------------5-----------3-----3--5----|
--10----12----5-----------4-------------|
--9-----9-----5-------------------------|
--7-----7-------------------------------|
--------------3-----------4-------------|

  ^           ^                          
----------------------------------------|
--6-----5--------------------------0----|
--5-----------5-----------------2-------|
--7-----------7-------------------------|
--------------7-------------------------|
--5-----------5-------------------------|

                       ^                 
----------------------------------------|
-----1--1--1--1--0--1--3----------------|
-----2--2--2--2--2--2--2--------0--0L---|
--0-------------------------------------|
----------------------------------------|
-----------------------0----------------|

              ^                            ^
----------------------------------------|----------------------|-------------|
-----------0--1--------1--1--0--1--3----|--5-----3-----1L------|--1s-3L------|
--0-----0-----2-----2-----2-------------|--5-------------------|-----4L------|
-----2--------2--2--------2-------------|--5--3--------3L------|--3----------|
----------------------------------------|----------------------|-------------|
--------------1-----------1-------------|--3-----------3L------|--3s-4L------|


-------|----------------------|----------------------|----------------------|
--3----|--1--------1--1-------|-----1--1--------1----|--1-----------1-------|
--4----|--2-----2-----0-------|-----0--2-----2-------|--2-----------2-------|
-------|--2--2----------------|--------2--2----------|--2-----------2--2----|
-------|--0-------------------|----------------------|--------------0-------|
--4----|--------------3--0----|--3-----1-------------|--1-------------------|


----------------------|----------------------|----------------------|
-----1--0-----0--3----|--1-----0-----0-------|--0-----1-----1-------|
--2-----1-------------|--2-----2-----1-------|--1-----2-----2-------|
--------2--2----------|--2--2--2--2--2--2----|--2--2--2-----2-------|
----------------------|--3-----0-------------|-----------0-----0----|
--------4-------------|--------------0-------|--0-------------------|


----------------------|--1-------------------|----------------------|
--5-----5-----3-------|--3-----1-----1-------|--1-----1-----1-------|
--4-----4-----3-------|--------2-----0-------|--2-----2-----2-------|
--2-----2-------------|--------2-----0-------|-----2-----2-----1----|
-----2-----2----------|-----------3-----2----|----------------------|
--------------3--3----|--3--3----------------|----------------------|


----------------------|----------------------|----------------------|
--1-----0-----0-------|--0-----0-----1-------|--1-----3-----3-------|
--2-----1-----1-------|--1-----1-----2-------|--2-----4-----4-------|
-----1-----2-----2----|-----2-----2-----3----|-----3-----3-----3----|
----------------------|----------------------|----------------------|
----------------------|----------------------|----------------------|


----------------------|----------------------|----------------------|
--3-----5-----1-------|--1-------------------|--0-----0-------------|
--4-----4-----2-------|--2-----2-----2-------|--1-----1-----2-------|
-----5-----6-----2----|-----2--3-----3-------|-----2-----2--3-------|
----------------------|-----------3-----3----|-----------------3----|
----------------------|----------------------|----------------------|


----------------------|----------------------|----------------------|
--------3-----2-------|--1-----1-----3-------|--3-----3-----5-------|
--2-----3-----3-------|--2-----2-----4-------|--4-----4-----4-------|
--3--------5-----4----|-----3-----3-----5----|-----5-----5-----6----|
-----3----------------|----------------------|----------------------|
--------3-----2-------|--1-----1-----3-------|--3-----3-----4-------|


----------------------|----------------------|----------------------|
--1-----1-----1-------|--1--0L----------0----|--1-----1--0L---------|
--2-----2-----2-------|--2--0L----------0----|--2-----2--0L---------|
-----3-----3-----3----|----------------------|-----3----------------|
----------------------|----------------------|----------------------|
--1-----1-----1-------|-----3L----------3----|--1--------3L---------|


-------------|-------|-------------||
--0--1L------|--1----|-------------||
--0--2L------|--2----|-------------||
-----3L------|--3----|-------------||
-------------|-------|-------------||
--3--1L------|--1----|-------------||
Tempo = 71
Electric Bass


G |-------------|-------------|-------------|-------------|-------------|
D |-------------|-------------|-------------|-------------|-------------|
A |-------------|-------------|-------------|-------------|-------------|
E |-------------|-------------|-------------|-------------|-------------|


-------------|-------------|-------------|-------------|-------------|
-------------|-------------|-------------|-------------|-------------|
-------------|-------------|-------------|-------------|-------------|
-------------|-------------|-------------|-------------|-------------|


-------------|-------------|-------------|-------------|-------------|
-------------|-------------|-------------|-------------|-------------|
-------------|-------------|-------------|-------------|-------------|
-------------|-------------|-------------|-------------|-------------|


-------------|-------------|-------------|-------------|-------------|
-------------|-------------|-------------|-------------|-------------|
-------------|-------------|-------------|-------------|-------------|
-------------|-------------|-------------|-------------|-------------|


-------------|-------------|-------------|-------------|-------------|
-------------|-------------|-------------|-------------|-------------|
-------------|-------------|-------------|-------------|-------------|
-------------|-------------|-------------|-------------|-------------|


-------------|-------------|-------------|-------------|-------------|
-------------|-------------|-------------|-------------|-------------|
-------------|-------------|-------------|-------------|-------------|
-------------|-------------|-------------|-------------|-------------|


-------------|-------------|-----------------------------------7----|
-------------|-------------|--------------------------------10------|
-------------|-------------|----------------------------------------|
-------------|-------------|----------------------------------------|


--9-----------------7--9----------------|
--------7-----10----------------9-------|
----------------------------------------|
----------------------------------------|


--------7-----9-----7-----7--------7L---|
--10----------------------------10------|
----------------------------------------|
----------------------------------------|


--7-----9-------------------------------|
--------------------7--9--10L-----------|
-----------10---------------------------|
----------------------------------------|


-----------7--9-----7-------------------|
--10-9--10----------------8-----9-------|
----------------------------------------|
----------------------------------------|


----------------------------------------|
--10----7-----7-----9--10-9-------------|
--------------------------------7-------|
----------------------------------------|


--------7-----9-----------------7--9L---|--9--------7--9--7----|
--10----------------7-----10------------|-----9--10------------|
----------------------------------------|----------------------|
----------------------------------------|----------------------|


--10----9-----7-----9-------------------|
--------------------------------7--9----|
-----------------------10---------------|
----------------------------------------|


----------------------------------------|
--------------------10----10----9--7L---|
--------7-----8-------------------------|
----------------------------------------|


--------------------------------9-------|
--7-----9--10---------------------------|
--------------------7-----8-------------|
----------------------------------------|


--9-----7--------------9--14L-----------|--14-14-12-10-10-12---|
-----------10----9--10------------------|----------------------|
----------------------------------------|----------------------|
----------------------------------------|----------------------|


--9-----------7-----7--9--10----9-------|
-----------------------------------10L--|
----------------------------------------|
----------------------------------------|


----------------------------------------|
--10----7--9--------------------10------|
--------------------7-----8-------------|
----------------------------------------|


--9-----7--------------7--9-------------|
-----------10----9--10----------7-------|
----------------------------------------|
----------------------------------------|


--------7--9L----------------9--9-------|--14L---14-14-12-10---|
--10------------------------------------|----------------------|
----------------------------------------|----------------------|
----------------------------------------|----------------------|


--10----12----9-----------7-----7--9----|
----------------------------------------|
----------------------------------------|
----------------------------------------|


--10----9-------------------------------|
-----------10-------7--9-----10.10.10.--|
----------------------------------------|
----------------------------------------|


-----------7----------------------------|
--10-9--10-------------------------9----|
--------------------10-10----7--10------|
----------------------------------------|


-----------------------9--------7-------|-----7--9L------------|--9----|
-----10.10.10.10-9--10------------------|--10------------------|-------|
----------------------------------------|----------------------|-------|
----------------------------------------|----------------------|-------|


-------------||
-------------||
-------------||
-------------||
Login or Register to remove this ad.