Login or Register to remove this ad.

Daydream Café ~solo piano ver.~ (Gochuumon wa Usagi Desu ka?) Guitar Tab

Submitted: Jan 06, 2017 by scarecrowlol

4.857145
Average: 4.9 (7 votes)
Download | Listen
Game: Gochuumon wa Usagi Desu ka?
Composer(s): Ruka Kawada
Style: Arrangement, Fingerstyle, Pinch harmonics

AutoScroll: Slow | Medium | Fast
Title: Daydream Café ~solo piano ver.~
SubTitle: Gochuumon Wa Usagi Desu Ka?
Artist: Ruka Kawada, Kaoru Okubo, Yuki Kimura
Tabber: Mitch Jackson
Tempo = 110
T/S = 4/4


So i heard you guys like rabbit cafés (☞ ゚ ヮ ゚)☞



   ♪♫•*¨*•.¸¸ CAPO 3 ¸¸.•*¨*•♫♪
 


   2/4              4/4
     E  E  E  E       E  E  Q     E  Q     E       E  E  E  E  E  E  E  E       Q     Q     Q.       E
E |-----0-----3----|--5-----5-----5--5-----3----|--L--3--1--1--0--1--0-------|--------3--------------3----|
B |--------6-------|--------6-----0--------0----|--L--------------------3----|--1-----1-----1--------0----|
G |----------------|-----5--------0-------------|--------------2-------------|--2-----0-----0--------0----|
D |----------------|--0--------------------2----|--L-------------------------|--0-----2-----3--------2----|
A |----------------|----------------------------|----------------------------|----------------------------|
D |----------------|----------------------------|----------------------------|----------------------------|

                                  ^
     E  E  E  E  H                E  E  Q     E  Q     E       E  E  E  Q.       E  E       E  E  E  E  E  E  E  E
  |--L--5--3--1--0-------------|--1-----1-----1--1-----0----|--L--0--4--5-----------0----|--1--0-----1--0-----5--3----|
  |--L-----------1-------------|--------1-----3--------0----|--L-----------------3-------|--------1--------1-----3----|
  |--L-----------2-------------|--2--2--------0--------1----|--L-----4--5----------------|--2-----0-----2--------0----|
  |--L-------------------------|--0--------------------2----|--L-----6--7----------------|--0-----2-----3-------------|
  |----------------------------|----------------------------|----------------------------|----------------------------|
  |----------------------------|----------------------------|----------------------------|----------------------------|

                                           ^              
     Q.       Q     E  E  E       Q.       H           E       W                            E  E  E  E  E  E  E  E
  |--L--------3-----3--5--3----|--L--------15----------L----|--L-------------------------|-----------3-----------3----|
  |--L-------------------------|-----------15----------L----|--L-------------------------|--1--0--1-----1--0--1-------|
  |--L-------------------------|-----------12----------L----|--L-------------------------|--------0-----0-------------|
  |----------------------------|----------------------------|----------------------------|--3-------------------------|
  |----------------------------|----------------------------|----------------------------|--3-------------------------|
  |----------------------------|----------------------------|----------------------------|--0-----2-----3-------------|

     ^                                                         ^   
     E  E  E  Q     E  E  E       E  E  E  E  E  E  E  E       Q     E  Q     E  E  E       E  E  E  E  E  E  E  E
  |----------------------------|-----------3-----------0----|--------0-------------------|-----------3-----------3----|
  |-----0-----3-----1-----1----|--L--0--1-----1--0--1-------|--6--------3-----1-----1----|--L--0--1-----1--0--1-------|
  |--5-----5--0----------------|-----------0--0-------------|--4--------------------0----|--L-----0-----0-------------|
  |--0--------2-----------0----|--L-------------------------|--0--------2----------------|----------------------------|
  |-----------0--------0--3----|--L-------------------------|-----------0--------0--3----|--L-------------------------|
  |--5--------------------0----|--L-----2-----3-------------|--5--------------------0----|--L-----2-----3-------------|

     ^                                                     
     E  E  E  Q     E  E  E       E  E  E  E  E  E  E  E       Q.       Q     E  E  E       E  E  E  E  E  Q     E
  |----------------------------|-----------3-----0----------|----------------------------|--0--1--0--------------0----|
  |-----0-----3-----1-----1----|--L--0--1-----------3--1----|--0--------0-----------1----|-----1-----1-----1----------|
  |--5-----5--------------0----|--L-----0-----2-------------|--0--------0-----2--2-------|--------------2--------2----|
  |--0--------2----------------|----------------------------|--0--------0----------------|--3--------------------3----|
  |-----------0--------0--3----|--L-------------------------|----------------------------|----------------------------|
  |--5--------------------0----|--L-----2-----3-------------|--5--------5----------------|----------------------------|

                 ^                                     ^                                                         ^
     E  E  E  E  E  E  E  E       E  E  E  E  E  E  E  E       E  Q     E  E  E  E  E       E  E  E  E  E  Q     E
  |--L--1--0-----3--1--0--1----|--0--------3-----------0----|--L--0-----1--0-------------|--0--1--0--------------0----|
  |-----1-----1--0-------------|--1--0--1-----1--0--1--3----|--L----------(1)-------1----|-----1-----1-----1-----1----|
  |--L-----------0-------------|--2-----0--------------0----|--L-----------2--2--2-------|--------------2--------2----|
  |--L-------------------------|--0-----2-----3-------------|----------------------------|--3--------------------3----|
  |----------------------------|----------------------------|----------------------------|----------------------------|
  |----------------------------|----------------------------|----------------------------|----------------------------|

                                                       ^
     E  E  E  E  E  E  E  E       E  E  E  E  E  E  E  E       E  Q     E  H                E  E  E  E  E  E  E  E
  |--L--1--0-----3--1--0--1----|--0--------3-----------0----|--L--0-----1--0-------------|-----------------------0----|
  |--L--1-----1--0-------------|--1--0--1-----1--0--1--3----|--L-----------1-------------|-----0--1--3--0-----3-------|
  |--L-----------0-------------|--2-----0--------------0----|--L-----------2-------------|--2--------------5----------|
  |--L-------------------------|--0-----2-----3-------------|----------------------------|--------3--------0----------|
  |----------------------------|----------------------------|----------------------------|-----0----------------------|
  |----------------------------|----------------------------|----------------------------|--0-----------5-------------|


     E  E  E  E  E  E  Q          E  E  Q     E  Q     E       E  E  E  E  Q.       E       E  E  E  E  E  E  E  E
  |--------0--1--0-------------|-----3--------3--------3----|--L--3--1--0-----------5----|--3--3--1--0-----------3----|
  |--1--3--0--------3--1-------|--------1--------1-----3----|--L-----3-----1-------------|--------------3--------0----|
  |--------0-------------------|--2-----0-----2--------0----|--L-----------2-------------|--------------4-----0--0----|
  |-----0--------2-------------|--0-----2-----0-------------|----------------------------|--------3--------0----------|
  |--------------0-------------|----------------------------|----------------------------|-----3----------------------|
  |--2-------------------------|----------------------------|----------------------------|--0-----------5--------2----|

                                       (╯°益°)╯彡┻━┻                  
     E  E  E  E  Q     E  E       E  E  S S E  E  E  E  E       E  E  E  E  E  E  E  E       E  E  E  Q     E  E  E
  |--1--1--0-----------0-------|-----3--3-3----3--3-----3----|--L-----------------5--3----|--L--3--5--------1-----5----|
  |--------0-----1--------3----|--1---------1--------1--1----|--L--1--1-----1-------------|-----------1-----1-----6----|
  |-----------7----------------|--2------------2--------0----|--L--------2-----2-----0----|--L--------0-----2-----0----|
  |--------------2-------------|--0-----2------3--------3----|--L--------3----------------|--------------------0-------|
  |--------------0-------------|-----------------------------|----------------------------|----------------------------|
  |--------6-------------------|-----------------------------|----------------------------|----------------------------|

                                                     
     E  E  E  Q     E  E  E       E  E  E  Q     E  E  E       E  E  E  Q     E  E  E       E  E  Q     E  E  E  E
  |--L--------3-----5-----0----|--L-----0--3-----------3----|--L--3--3--3-----0-----3----|--5-----5-----5--5-----3----|
  |--L--0--1--1----------------|-----3-----1-----1----------|--------------------6-------|--------6-----0-------------|
  |--L--------0-----------5----|--L--------0-----0-----5----|--L--5--5--5----------------|--------------------0-------|
  |--------0-----------0--0----|--L-----0-----------0--0----|--L--0--0--0----------------|--------3--------0----------|
  |----------------------------|----------------------------|----------------------------|-----3----------------------|
  |-----------------------5----|--L--------------------5----|--L--5--5--5----------------|--0-----------5--------2----|

                                                       ^                                    ^
     E  E  E  E  E  E  E  E       Q     Q     Q     E  E       E  E  E  E  E  E  Q          E  E  Q     E  Q     E
  |--L--3--1--1--0--1--0-------|--------3--------------3----|--L--5--3-----0-------------|--1-----1--------------0----|
  |-----------------------3----|--1-----0-----1-------------|-----------6--1-------------|--1-----1-----6--6-----0----|
  |--------0-----------2-------|--0-----0-----2--------0----|--L-----0-----------2-------|-----2--------4--------1----|
  |-----------------2----------|--2-----------------3-------|-----0-----------2----------|--0-------------------------|
  |-----2--------0-------------|----------------------------|--------------0-------------|----------------------------|
  |--L-------------------------|--0-----2-----3--------2----|--L-------------------------|--------------5--------2----|

                                                         
     E  E  E  Q     E  E  E       E  E  E  E  E  E  E  E       E  E  E  Q     E  E  E       E  E  Q     E  E  E  E
  |--L--0--4--5-----------0----|--1p-0-----1p-0-----5--3----|--L--3-----------0-----3----|--5-----5-----5--5-----3----|
  |--L-----------------3-------|--------1--------1----------|-----------0--------6-------|--------6-----0-------------|
  |--L-----4--5-----2----------|-----------2----------------|--------5--0----------------|--------------------0-------|
  |----------------------------|--3-------------------------|-----------3----------------|--------3--------0----------|
  |-----------0----------------|----------------------------|----------------------------|-----3----------------------|
  |--L-----6-------------------|-----------------------5----|--L-----------------5-------|--0-----------5--------2----|

                                                                           ^
     E  E  E  E  E  E  E  E       Q     Q     E  E  E  E       E  E  E  E  Q     E  E       E  E  Q     E  Q     E
  |--L--3--1--1--0--1--0-------|--------3--------------3----|--L--5--3-----0--------0----|--1-----1--------------0----|
  |-----------------------3----|--1-----------1-------------|-----------6--1-----3-------|--1-----1-----6--6-----0----|
  |--------0-----------2-------|----------------------------|--------------2-------------|-----2----------------------|
  |-----------------2----------|--------------------3-------|--------0-------------------|--0-----------3--------0----|
  |-----2--------0-------------|--3--------------3----------|--------------0-------------|----------------------------|
  |--L-------------------------|--0-----2-----3--------2----|--L-------------------------|--------------5--------2----|

                                                         
     E  E  E  Q.       E  E       E  E  E  E  E  E  E  E       E  E  E  E  E  E  E  E       E  E  Q     E  E  E  E
  |--L--0--4--5-----------0----|--1--0-----1--0-----5--3----|--L--0--0-----0--0-----3----|--L--3--3-----3--3--5--3----|
  |--L-----0-----------3-------|--------1--------1-----3----|--L--------3--------6--3----|--L--3--3-------------------|
  |-----------5--------2-------|--2-----------2--------0----|--L--------------------0----|--L-----0-------------------|
  |--L-----2-------------------|--0-----2-----3-------------|----------------------------|----------------------------|
  |-----------0----------------|----------------------------|----------------------------|----------------------------|
  |--L-------------------------|----------------------------|----------------------------|----------------------------|

              ^                                                ^
     Q.       H           E       E  E  E  E  E  E  E  E       E  E  E  Q     E  E  E       E  E  E  E  E  E  E  E
  |--L--------15----------L----|-----------3-----------3----|----------------------------|-----------3-----------0----|
  |-----------13----------L----|--1--0--1-----1--0--1-------|-----0-----3-----1-----1----|--L--0--1-----1--0--1-------|
  |-----------12----------L----|--------0-----0-------------|--5-----5--0----------------|-----------0--0-------------|
  |----------------------------|--3-------------------------|--0--------2-----------0----|--L-------------------------|
  |----------------------------|--3-------------------------|-----------0-----------3----|--L-------------------------|
  |----------------------------|--0-----2-----3-------------|--5-----------------2--0----|--L-----2-----3-------------|

     ^                                                         ^
     Q     E  Q     E  E  E       E  E  E  E  E  E  E  E       E  E  E  Q     E  E  E       E  E  E  E  E  E  E  E
  |--------0-------------------|-----------3-----------3----|----------------------------|-----------3--1--0----------|
  |--6--------3-----1-----1----|--L--0--1-----1--0--1-------|-----0-----3-----1-----1----|--L--0--1-----------3--1----|
  |--4--------------------0----|--L-----0-----0-------------|--5-----5--------------0----|--L-----0-------------------|
  |--0--------2----------------|----------------------------|--0--------2----------------|----------------------------|
  |-----------0--------0--3----|--L-------------------------|-----------0--------0--3----|--L-------------------------|
  |--5--------------------0----|--L-----2-----3-------------|--5--------------------0----|--L-----2-----3-------------|

                                  fermata
     Q.       Q.       E  E       H.                E  E       W                            W
  |----------------------------|----------------------------|-<3>------------------------|--L-------------------------||
  |--0--------0--------0--1----|--L-------------------<1>---|----------------------------|--L-------------------------||
  |--0--------0-----------0----|--L----------------<0>------|----------------------------|--L-------------------------||
  |--0--------0----------------|----------------------------|----------------------------|----------------------------||
  |----------------------------|----------------------------|----------------------------|----------------------------||
  |--5--------5-----------3----|--L-------------------------|----------------------------|----------------------------||

Login or Register to remove this ad.

4 comments on Daydream Café ~solo piano ver.~

I was taken completely by

I was taken completely by surprise when I saw (╯°益°)╯彡┻━┻ haha! Literally laughed out loud and scared my cat!

Hahaha! A little joke of mine

Hahaha! A little joke of mine because that part would always stuff me up XD
Those damned quick notes

Usagi~ usagi~

5

Usagi~ usagi~

/(^ᆺ^)\ ~pyon~ ~pyon~

 /(^ᆺ^)\ 

~pyon~ ~pyon~